Acordes de Guitarra » R »Reik » Peligro (Tab)

Peligro
Reik

Letras, Acordes y Tabs para Guitarra, Bajo y Ukulele

  • Am
    No logre tomar distancia critica
    Am
    Me vuelvo a equivocar la historia típica
    F               G
    En un irracional impulso eléctrico
    Am
    Mi corazón corre en tu dirección
    
    
    Am
    Me hace tanto mal tu humor errático
    Am
    Te sigo sin pensar en automático
    F                   G
    Si doy un paso mas ya no lograre volver
    Am
    No se como retroceder
    
    F              G                          Am
    
  • EN REALIDAD ES UN PUNTEO DE LA CANCIÓN, PERO NO HALLÉ DÓNDE MÁS COLOCARLO.
    
    ESTROFAS:
    No logre tomar distancia crítica
    e|---0---------------------|
    b|-----0-1---------0-1-0---|
    g|-2--------2--2-2-------2-|
    d|-------------------------|
    a|-0-----------------------|
    E|-------------------------|
    
    
    Me vuelvo a equivocar la historia típica
    e|-------0---------------------|
    b|---------0-1---------0-1-0---|
    g|-(0)-2--------2--2-2-------2-|
    d|-----------------------------|
    a|-----0-----------------------|
    E|-----------------------------|
    
    
    En un irracional impulso eléctrico
    e|-------0---------------------|
    b|---------0-1---------0-1-0---|
    g|-(0)-2--------2--2-2-------2-|
    d|-----------------------------|
    a|-----0-----------------------|
    E|-----------------------------|
    
    
    Mi corazón corre en tu dirección
    e|---------------------|
    b|-1-------------------|
    g|-0-2-0-2--2-2-0-2-2-2|
    
    
    
    Me hace tanto mal tu humor errático
    e|---0---------------------|
    b|-----0-1---------0-1-0---|
    g|-2--------2-
  •        E A D G B E
    
    Fmaj7  0 3 3 2 1 0
    Gmaj7  0 5 5 4 3 0
    Am     5 7 7 5 5 5
    
    
    --Intro--
    
    1ra Guitarra
    Fmaj7  Gmaj7  Am  Gmaj7
    
    
    2da Guitarra:
    1----------------------------------------------------------
    2----------------------------------------------------------
    3--99999999999966666644444444555566669999999912121212121212
    
    1----------------------------------------------------------
    2----------------------------------------------------------
    
  • +
    ¡Colabora con nosotros!
    Envíanos tu versión de esta canción
  • Tutorial
    como tocar Reik Peligro en la guitarra
    0:53

Letra de Peligro
No logre tomar distancia critica
Me vuelvo a equivocar la historia típica
En un irracional impulso eléctrico
Mi corazón corre en tu dirección
Me hace tanto mal tu humor errático
Te sigo sin pensar en automático
Si doy un paso mas ya no lograre volver
No se como retroceder
Una y otra vez tengo que luchar contigo Aaaa Auu
IBM
Vivo en peligro y otra vez corro por la línea
De fuego me besas caigo en tu juego
Peligro de caer en tu voz estoy perdido
No escucho a mi sexto sentido
ooooh ooooh ooooh ooooh ooooh ooohhh Aaa Auu
IBM
Usas contra mi tu voy hipnótica
De nuevo voy a ti no tiene lógica
No se como cruzar un laberinto
Que yo construí quiero salir de aquí
Una y otra vez vuelvo a tropezar contigo Aaa Auu
IBM
Vivo en peligro y otra vez corro por la línea
De fuego me besas caigo en tu juego
Peligro de caer en tu voz estoy perdido
No escucho a mi sexto sentido
Peligro y otra vez corro por la línea
De fuego me besas caigo en tu juego
Peligro de caer en tu voz estoy perdido
No escucho a mi sexto sentido
ooooh ooooh ooooh ooooh ooooh ooohhh Aaa Auu
IBM
ooooh ooooh ooooh ooooh ooooh ooohhh uoauoooooooo
Vivo en peligro y otra vez corro por la línea
De fuego me besas caigo en tu juego
Peligro de caer en tu voz estoy perdido
No escucho a mi sexto sentido
Peligro y otra vez corro por la línea
De fuego me besas caigo en tu juego
Peligro de caer en tu voz estoy perdido
No escucho a mi sexto sentido
ooooh ooooh ooooh ooooh ooooh ooohhh Aaa Auu
Mi cover de Peligro: http://www.youtube.com/watch?v=txA2dO_9pIc
Acordes por Isaac Blas
Email: IsaacBlas@hotmail.com
Youtube: http://www.youtube.com/saackblaz
Facebook: http://www.facebook.com/SaackBlaaz
Twitter: http://twitter.com/saackblaz
MySpace: http://www.myspace.com/isaacblas




[Peligro chords][Peligro cifra]
© LaCuerda.net · aviso legal · privacidad · es · en · pt · contacto