Acordes de Guitarra » R »Real de Catorce » Voy a morir (Tab)

Voy a morir
Real de Catorce

  • Tablatura
    Este es el intro pero es en vivo o sino sáquenle tono
     hay les vaaa ala banda
    
    INTRO
    Riif 1
     e|-----------7------7^^----------------
     b|757--57-----5^^-----7--57-57---------
     g|--------------------------------55---
     d|-------------------------------------
     a|-------------------------------------
     e|-------------------------------------
    voy a morir muy firme entre tus piernas
     e|---------7----7--------7---7----------
     b|-7 57 57---5^^--7-57-57—5^^-----------
     g|--------------------------------------
     d|--------------------------------------
     a|--------------------------------------
     e|--------------------------------------
    voy a morir de una muerte turbia y perbersa
     e|--------------------------------------
     b|---------7----7---------7----7--------
     g|-7-57-57---5^^--7-57-57---5^^---------
     d|--------------------------------------
     a|--------------------------------------
     e|--------------------------------------
     pero antes dime por que jesus perdió la fe
    
     e|-----------------------
  • +
    ¡Colabora con nosotros!
    Envíanos tu versión de esta canción





© LaCuerda.net · aviso legal · privacidad · contacto