Acordes de Guitarra » R »RBD » Rebelde (Tab)

Rebelde
RBD

Letras, Acordes y Tabs para Guitarra, Bajo y Ukulele

  • Intro    G D/F# Em C
    
    G                        D/F#
    Mientras mi mente viaja donde tú estás
     Em                  C
    mi padre grita otra vez,
    G                  D/F#
    que me malgasto mi futuro y su paz
     Em             C
    con mi manera de ser.
    
    PRE I
     D                           C
    Aunque lo escucho ya estoy lejos de aquí
      D                     C
    cierro los ojos y ya estoy pensando en ti.
    
    CORO
             G                D/F#
    Y soy rebelde, cuando no sigo a los demás
    
  •      G         D       Em       C
    E -----------------------------------
    B -3-3--3---3-3--3----0-0--0--1-1--1-
    G -0----0---2----2----0----0--0----0-
    D -0----0---0----0----2----2--2----2-
    A -----------------------------------
    E -----------------------------------
    
    
    
    
    A:
    G                        D
    Mientras mi mente viaja donde tú estás
    Em                   C
    mi padre grita otra vez
    G                     D
    que me malgasto mi futuro y su paz
     Em                C
    con mi manera de ser.
    
  • e----------------------------------------------------------
    B--3---------3-------------------1--------------3----------
    G--0--0--0---2--2--2---0---------0--0--0-----------2-------
    D-----0--0------0--0---2--2--2------2--2---2/4--------4----
    A-------------------------3--3-----------------------------
    E----------------------------------------------------------
        G                          D             C
        Mientras mi mente viaja a donde tu estas  mi padre grita
    e-----------------------------------------------------
    B--3---------------------------3----------------------
    G--0--0--0---------------------2--2--2-------0--------
    D-----0--0------------------------0--0-------2--2--2--
    A-----------------------------------------------3--3--
    E-----------------------------------------------------
    
    Otra vez
    e-----------------------------
    B----1--------------3---------
    G----0--0--0-----------2------
    D-------2--2---2/4--------4---
    
  • Intro:/G/D/Em/C/
    
    
    G                        D
    Mientras mi mente viaja donde tú estás
    Em                   C
    mi padre grita otra vez
    G                     D
    que me malgasto mi futuro y su paz
     Em                C
    con mi manera de ser.
    
    D                           Em
    Aunque lo escucho ya estoy lejos de aquí
    D                       C (marcarlo nomas)
    cierro los ojos y ya estoy pensando en ti.
    
    
             G                D
    Y soy rebelde, cuando no sigo a los demás
    
  • Bueno esta cancion no es muy de mi agrado
    y se la dedico a EL KE LE KEDE EL SACO
     va algo asi:
    
    
    INTRO es igual ke el verso
    
    Verso 1
    E---------------------------
    A---------------------------
    D--------5-5-5--2-2-2--3-3-3
    G--3-3-3--------------------
    
    OK esto es en TODOs los versos jeje extrmadamente facil no?
    CORO
    
    E----------------------------------------------------------------
    A----------------------------------------------------------------
    D-----------------5-5-5-5-5-5-5-5-2-2-2-2-3-3-3-3-5-5-5-5-5-5-5-5
    G--3-3-3-3-3-3-3-3------------------------------------------------
    
    SOLO
    E----------------------------------------------------------------
    A----------------------------------------------------------------
    D-----------------5-5-5-5-5-5-5-5-2-2-2-2-3-3-3-3-5-5-5-5-5-5-5-5
    G--3-3-3-3-3-3-3-3
    SOLO DENLE OCHO TIEMPOS ENLUGAR DE 4 AL SOLO
    
    Del tercer al cuarto tiempo es la mitad de un tiempo con
     cada nota y pues bueno
    esta es toda la famosisima cancion ojala y la lean y esta muy f
  • +
    ¡Colabora con nosotros!
    Envíanos tu versión de esta canción

Letra de Rebelde
Mientras mi mente viaja donde tú estás
mi padre grita otra vez,
que me malgasto mi futuro y su paz
con mi manera de ser.
PRE I
Aunque lo escucho ya estoy lejos de aquí
cierro los ojos y ya estoy pensando en ti.
Y soy rebelde, cuando no sigo a los demás
y soy rebelde, cuando te quiero hasta rabiar
y soy rebelde, cuando no pienso igual que ayer
y soy rebelde, cuando me juego hasta la piel
Alguno de estos días voy a escapar
para jugarme todo por un sueño
todo en la vida es a perder o ganar
hay que apostar, hay que apostar sin miedo.
PRE II
No importa mucho lo que digan de mi,
cierro los ojos y ya estoy pensando en ti.
PRE II
Y soy rebelde!




[Rebelde chords][Rebelde cifra]
© LaCuerda.net · aviso legal · privacidad · es · en · pt · contacto