Acordes de Guitarra » R »Razones Concientes » El vuelo final (Tab)

El vuelo final
Razones Concientes

Letras, Acordes y Tabs para Guitarra, Bajo y Ukulele

  • e|-----------------------------------------------------------------|
    B|-----------------------------------------------------------------|
    G|-----------------------------------------------------------------|
    D|-----------------------------------------------------------------|
    A|-7-5-7-5-7-8--7-5-7-5-7-5--7-5-7-5-7-8--7-5-7-5-7-5--------------|
    E|-7-5-7-5-7-8--7-5-7-5-7-5--7-5-7-5-7-8--7-5-7-5-7-5--------------|
    
    
    
    
    e|-----------------------------------------------------------------|
    B|-----------------------------------------------------------------|
    G|-----------------------------------------------------------------|
    D|-----------------------------------------------------------------|
    A|-7-------------------5-7-----------------------------------------|
    E|-7-------------------5-7-----------------------------------------|
        Por sentirte libre    te hechastes a volar
    
    
    
    e|-----------------------------------------------------------------|
    B|-----------------------------------------------
  • +
    ¡Colabora con nosotros!
    Envíanos tu versión de esta canción






[El vuelo final chords][El vuelo final cifra]
© LaCuerda.net · aviso legal · privacidad · es · en · pt · contacto
DINAMICO