Acordes de Guitarra » R »Razones Concientes » Endeudando nuestro sol (Tab)

Endeudando nuestro sol
Razones Concientes

Letras, Acordes y Tabs para Guitarra, Bajo y Ukulele

  • e|-----------------------------------------------------------------|
    B|-----------------------------------------------------------------|
    G|-----------------------------------------------------------------|
    D|-------------9-------10-------------9-------7-------------9------|
    A|-------------7--------8-------------7-------5-------------7------|
    E|-0-0-0-0-0-0---0-0-0----0-0-0-0-0-0---0-0-0---0-0-0-0-0-0---0-0-0|
    
    
    
    e|-----------------------------------------------------------------|
    B|-----------------------------------------------------------------|
    G|-----------------------------------------------------------------|
    D|-7-------------9-12-7-------------9-------10-------------9------7|
    A|-5-------------7-10-5-------------7--------8-------------7------5|
    E|---0-0-0-0-0-0--------0-0-0-0-0-0---0-0-0----0-0-0-0-0-0---0-0-0-|
    
    
    
    e|-----------------------------------------------------------------|
    B|-----------------------------------------------------------------|
    G|--------------------------
  • +
    ¡Colabora con nosotros!
    Envíanos tu versión de esta canción






[Endeudando nuestro sol chords][Endeudando nuestro sol cifra]
© LaCuerda.net · aviso legal · privacidad · es · en · pt · contacto
DINAMICO