Acordes de Guitarra » R »Rata Blanca » Buscando Pelea (Tab)

Buscando Pelea
Rata Blanca

  • Tablatura
    1|------0-----------------|------0-----------------|
    2|----------6-------------|----------6-------------|
    3|--------------7---5-4---|--------------7---5-4-7-|
    4|---7----7---7---7-----5-|---7----7---7---7-------|
    5|-0----------------------|-0----------------------|
    6|------------------------|------------------------|
    
    1|------0-----------------|------0-----------------|
    2|----------6-------------|----------6-------------|
    3|--------------7---5-4---|--------------7---5-4-7-|
    4|---7----7---7---7-----5-|---7----7---7---7-------|
    5|-0----------------------|-0----------------------|
    6|------------------------|------------------------|
    
    1|------0-----------------|------0-----------------|
    2|----------6-------------|----------6-------------|
    3|--------------7---5-4---|--------------7---5-4-7-|
    4|---7----7---7---7-----5-|---7----7---7---7-------|
    5|-0----------------------|-0----------------------|
    6|------------------------|------------------------|
    
  • +
    ¡Colabora con nosotros!
    Envíanos tu versión de esta canción

Letra de Buscando Pelea
Riff 1:
Verso 1:
Somos los hijos de la noche
los que sangramos por el Rock
Almas rebeldes y diferentes
los que no venden su ilusión
Verso 2:
No te dejes engañar, no te puedes escapar ¿De qué sirve?
Alguien tiene que pelear
y no es fácil caminar por el filo del destino
Verso 3:
Cuando estás en el Ring, ya no puedes salir
Ahora estás en el Ring, la pelea es aquí
Verso 4:
Somos la banda de gitanos
Los que defienden tu ilusión
Somos el fuego jugando el juego
que no es enseña el Rock and Roll
Verso 5:
No te dejes engañar, no te puedes escapar ¿De qué sirve?
Alguien tiene que pelear
y no es fácil caminar por el filo del cuchillo
Verso 6:
Cuando estás en el Ring, ya no puedes salir
Ahora estás en el Ring, la pelea es aquí
Verso 7 (solo)
Verso 8:
No te dejes engañar, no te puedes escapar ¿De qué sirve?
Alguien tiene que pelear
y no es fácil caminar por el filo del destino
Verso 9:
Cuando estás en el Ring, ya no puedes salir
Ahora estás en el Ring, la pelea es aquí
Cuando estás en el Ring, ya no puedes salir
Ahora estás en el Ring, la pelea es aquí
Verso 10:



© LaCuerda.net · aviso legal · privacidad · contacto
DINAMICO