Acordes de Guitarra » R »Rata Blanca » Talisman (Tab)

Talisman
Rata Blanca

Letras, Acordes y Tabs para Guitarra, Bajo y Ukulele

  • FA#m-SI-MI-LA-FA#m-SOL#m-(DO#m-SI-MI)
    FA#m-SI-MI-LA-FA#m-RE-SOL#m-DO#m
    
    DO#m                SOL#m
    Fui como un ángel caído
    SI                 FA#
    preso de mi libertad
           LA         SI
    hasta que te conocí
                 DO#m
    por esas calles
    
    
    DO#m                    SOL#m
    Fue porque quiso el destino
    SI                     FA#
    que te pudiera encontrar
               LA         SI
    y hoy no sé como seguir
                 DO#m-SI-DO#m
    
  • Dm                Am
    Fui como un ángel caído
    C                 G
    preso de mi libertad
           A#         C
    hasta que te conocí
    
    
                 Dm
    por esas calles
    
    Dm                    Am
    Fue porque quiso el destino
    C                     G
    que te pudiera encontrar
           A#            C
    y hoy no sé como seguir
                 Dm-C-Dm
    cuando no estás
    
    
  •                 F#5        B5     C#5 D#5     E5         A5      G#5 F#5
    E ----------------------------------------------------------------------
    B ----------------------------------------------------------------------
    G -6-(8)/9-8-6------------------/8p6--------------------2-(4)/6-4-2-----
    D -------------7~~7-6-----------------9-6~~6------------------------4~~-
    A --------------------9-7-6~~-2--------------9-7-6-4~~------------------
    E ----------------------------------------------------------------------
    
               G#5          C#5        D#5       E5
    E --------------------------------------------------
    B --------------------------------------------------
    G -9p8-9b(11)9-8~~--11b(13)11-9p11b9-8-8-9/(11)-----
    D ---------------------------------------------9~~--
    A --------------------------------------------------
    E --------------------------------------------------
    
             C#5             F#5      B5     C#5 D#5     E5        A5
    E ----------------------------------------------------------------------
    B ----------------------------------------------------------------------
    G -9-(11)/13-11-9----------------------/11p9----------------------------
    
  •             FA#m          SI          MI          LA
    1|-----------------------------------------------------|
    2|-----------------------------------------------------|
    3|-6h8h9-8-6-------------------6/8/6-------------------|
    4|----------7---6/7p6-4-------------9-6---4/6p4--------|
    5|----------------------7-6--------------------7-6-4---|
    6|-----------------------------------------------------|
    
               FA#m             SOL#m       DO#m SI MI
    1|-------------------------------------------------------------|
    2|-------------------------------------------------------------|
    3|---------------11-9h11p9-8h9-8---11/13-11-9h11p9-8-8-9-11----|
    4|---9-11-9-7----------------------------------------------9---|
    5|-12--------9-------------------------------------------------|
    6|-------------------------------------------------------------|
    
                  FA#m            SI           MI           LA
    1|------------------------------------------------------------|
    2|------9-----------------------------------------------------|
    3|-9h11---11-9----------------------9h11p9-8------------------|
    
  • Talismán
    Intro:
    G||-------|--------|------------|----------|--------|--------|------------|
    D||-------|--------|------------|----------|--------|--------|-----------2|
    A||-------|-2--2-2-|-3-5-7--7-7-|-7-6------|--------|--------|-4--4-2—-2--|
    E||2--2-2-|--------|------------|-----5—-5-|-2--2-2-|-4--4-4-|------------|
    
    
    G||-----------------|--------|------------|----------|--------|
    D||-2h-4-2----------|--------|------------|----------|--------|
    A||--------4--------|-2--2-2-|-3-5-7--7-7-|-7-6------|--------|
    E||----------2--2-2-|--------|------------|-----5—-5-|-2--2-2-|
    
    
    G||--------|--------|--------|
    D||--------|--------|--------|
    A||-5--5-5-|-4--4-4-|--------|
    E||--------|--------|-4--4-4-|
    
    Estrofa:
    
    
    G||--------|--------|--------|--------|
    D||--------|--------|--------|--------|
    A||-4--4-4-|--------|-2--2-2-|--------|
    E||--------|-4--4-4-|--------|-2--2-2-|
    
    
    G||--------|--------|-------------------|
    D||--------|--------|-------------------|
    A||--------|-2--2-2-|-------------
  • +
    ¡Colabora con nosotros!
    Envíanos tu versión de esta canción

Letra de Talisman
Fui como un ángel caído
preso de mi libertad
hasta que te conocí
por esas calles
Fue porque quiso el destino
que te pudiera encontrar
y hoy no sé como seguir
cuando no estás
Te agradezco que sanes mi alma
sobrevivo encontrando en tus ojos
el resplandor de un verde talismán
Si al final esta vida es un sueño
sólo sé que a tu lado me quiero despertar
amanecer una vez más
Sabes, cuando era muy joven
nunca pensé que el amor
me daría sin preguntar
tantas respuestas
Y hoy me fío de pocos
y hoy que reina la traición
se que alguien puede curar mi corazón
Te agradezco que sanes mi alma
sobrevivo encontrando en tus ojos
el resplandor de un verde talismán
Si al final esta vida es un sueño
sólo sé que a tu lado me quiero despertar
amanecer una vez más
Te agradezco que sanes mi alma
sobrevivo encontrando en tus ojos
el resplandor de un verde talismán
Si al final esta vida es un sueño
sólo sé que a tu lado me quiero despertar
amanecer una vez más
Si al final esta vida es un sueño
sólo sé que a tu lado me quiero despertar
amanecer una vez más




[Talisman chords][Talisman cifra]
© LaCuerda.net · aviso legal · privacidad · es · en · pt · contacto