Tablatura para Guitarra de Rata Blanca: Buscando Pelea
Conexión · Inscripción
Letras y Acordes
Pantalla Completa
Imprimir
Versión Texto
Añadir Favorito
Otras Versiones

Mostrar Diagramas
Desfile Automático
Manipular Acordes
Formato del Texto


Buscando Pelea(TAB)

Rata Blanca

calidad:
rata1071
AUTOR: Walter Giardino
ALBUM: Tormenta Eléctrica (2015)
Enviado por Diego
Tono: Eb

Intro:

1|------0-----------------|------0-----------------|
2|----------6-------------|----------6-------------|
3|--------------7---5-4---|--------------7---5-4-7-|
4|---7----7---7---7-----5-|---7----7---7---7-------|
5|-0----------------------|-0----------------------|
6|------------------------|------------------------|

1|------0-----------------|------0-----------------|
2|----------6-------------|----------6-------------|
3|--------------7---5-4---|--------------7---5-4-7-|
4|---7----7---7---7-----5-|---7----7---7---7-------|
5|-0----------------------|-0----------------------|
6|------------------------|------------------------|

1|------0-----------------|------0-----------------|
2|----------6-------------|----------6-------------|
3|--------------7---5-4---|--------------7---5-4-7-|
4|---7----7---7---7-----5-|---7----7---7---7-------|
5|-0----------------------|-0----------------------|
6|------------------------|------------------------|

1|------0-----------------|------0----------------|
2|----------6-------------|----------6------------|
3|--------------7---5-4---|--------------7--------|
4|---7----7---7---7-----5-|---7----7---7------3-5-|
5|-0----------------------|-0-----------------3-5-|
6|------------------------|-----------------------|

Riff 1:

1|----------------------------------------------------------|
2|----------------------------------------------------------|
3|----10---9----10---9------------10---9----10---9----------|
4|----10---7----10---7------------10---7----10---7----------|
5|-00----0---00----0---00000---00----0---00----0---0000-2-3-|
6|---------------------------3------------------------------|

1|--------------------------------------------------|
2|--------------------------------------------------|
3|----10---9----10---9------------10---9------------|
4|----10---7----10---7------------10---7----3--5--5-|
5|-00----0---00----0---00000---00----0------3--3--5-|
6|---------------------------3----------------------|

Verso 1:
             Somos los hijos de la noche
1|----------------------------------------------------------|
2|----------------------------------------------------------|
3|----10---9----10---9------------10---9----10---9----------|
4|----10---7----10---7------------10---7----10---7----------|
5|-00----0---00----0---00000---00----0---00----0---0000-2-3-|
6|---------------------------3------------------------------|

            los que sangramos por el Rock
1|----------------------------------------------------|
2|----------------------------------------------------|
3|----10---9----10---9--------------10---9------------|
4|----10---7----10---7--------------10---7----3--5--5-|
5|-00----0---00----0---000-2-3-2-00----0------3--3--5-|
6|----------------------------------------------------|

             Almas rebeldes y diferentes
1|-----------------------------------------------------------|
2|-----------------------------------------------------------|
3|----10---9----10---9------------10---9----10---9-----------|
4|----10---7----10---7------------10---7----10---7-----------|
5|-00----0---00----0---00000---00----0---00----0---000-2-3-2-|
6|---------------------------3-------------------------------|

            los que no venden su ilusión
1|--------------------------------------------------|
2|--------------------------------------------------|
3|----10---9----10---9------------10---9------------|
4|----10---7----10---7------------10---7----3--5--5-|
5|-00----0---00----0---00000---00----0------3--3--5-|
6|---------------------------3----------------------|

Verso 2:

  No te dejes engañar, no te puedes escapar ¿De qué sirve?
1|----------------------------------0-------------------|
2|--------------------------------------6---------------|
3|------------------------------------------7---5-4-----|
4|-5-7-7-5-7-5---5-7-7-5-7-5-----7----7---7---7-----5---|
5|-3-5-5-3-5-3---3-5-5-3-5-3---0----------------------7-|
6|------------------------------------------------------|

  Alguien tiene que pelear
  y no es fácil caminar por el filo del destino
1|-----------------------------------|
2|-----------------------------------|
3|-----------------------------------|
4|-5-7-7-5-7-5---5-7-7-5-7-5---3---5-|
5|-3-5-5-3-5-3---3-5-5-3-5-3---3---5-|
6|-----------------------------------|

Verso 3:

  Cuando estás en el Ring, ya no puedes salir
1|--------------------------------|
2|--------------------------------|
3|--------------------------------|
4|-2--3---5//7-7---2--3---//7-5-2-|
5|-0--3---3//5-5---0--3---//5-3-0-|
6|--------------------------------|

  Ahora estás en el Ring, la pelea es aquí
1|--------------------------------|
2|--------------------------------|
3|--------------------------------|
4|-2--3---5//7-7---2--3---//7-5-2-|
5|-0--3---3//5-5---0--3---//5-3-0-|
6|--------------------------------|

Verso 4:

           Somos la banda de gitanos
1|----------------------------------------------------------|
2|----------------------------------------------------------|
3|----10---9----10---9------------10---9----10---9----------|
4|----10---7----10---7------------10---7----10---7----------|
5|-00----0---00----0---00000---00----0---00----0---0000-2-3-|
6|---------------------------3------------------------------|

            Los que defienden tu ilusión
1|---------------------------------------------------|
2|---------------------------------------------------|
3|----10---9----10---9-------------10---9------------|
4|----10---7----10---7-------------10---7----3--5--5-|
5|-00----0---00----0---0000-2-3-00----0------3--3--5-|
6|---------------------------------------------------|

            Somos el fuego              jugando el juego
1|-------------------------------------------------------------|
2|-------------------------------------------------------------|
3|----10---9----10---9------------10---9----10---9-------------|
4|----10---7----10---7------------10---7----10---7-------------|
5|-00----0---00----0---00000---00----0---00----0---0-2-3-5-3-2-|
6|---------------------------3---------------------------------|

            que no es enseña el Rock and Roll
1|--------------------------------------------------|
2|--------------------------------------------------|
3|----10---9----10---9------------10---9------------|
4|----10---7----10---7------------10---7----3--5--5-|
5|-00----0---00----0---00000---00----0------3--3--5-|
6|---------------------------3----------------------|

Verso 5:

  No te dejes engañar, no te puedes escapar ¿De qué sirve?
1|----------------------------------0-------------------|
2|--------------------------------------6---------------|
3|------------------------------------------7---5-4-----|
4|-5-7-7-5-7-5---5-7-7-5-7-5-----7----7---7---7-----5---|
5|-3-5-5-3-5-3---3-5-5-3-5-3---0----------------------7-|
6|------------------------------------------------------|

  Alguien tiene que pelear
  y no es fácil caminar por el filo del cuchillo
1|-----------------------------------|
2|-----------------------------------|
3|-----------------------------------|
4|-5-7-7-5-7-5---5-7-7-5-7-5---3---5-|
5|-3-5-5-3-5-3---3-5-5-3-5-3---3---5-|
6|-----------------------------------|

Verso 6:

  Cuando estás en el Ring, ya no puedes salir
1|--------------------------------|
2|--------------------------------|
3|--------------------------------|
4|-2--3---5//7-7---2--3---//7-5-2-|
5|-0--3---3//5-5---0--3---//5-3-0-|
6|--------------------------------|

  Ahora estás en el Ring, la pelea es aquí
1|--------------------------------|
2|--------------------------------|
3|--------------------------------|
4|-2--3---5//7-7---2--3---//7-5-2-|
5|-0--3---3//5-5---0--3---//5-3-0-|
6|--------------------------------|

Verso 7 (solo)

1|---------------------------------------|
2|---------------------------------------|
3|---------------------------------------|
4|-2---------2---------2----7----------2-|
5|-0----3----0----5----0----5----3--5--0-|
6|------1---------3--------------1--3----|

1|---------------------------------------|
2|---------------------------------------|
3|---------------------------------------|
4|-2---------2---------2----7----------2-|
5|-0----3----0----5----0----5----3--5--0-|
6|------1---------3--------------1--3----|

Verso 8:

  No te dejes engañar, no te puedes escapar ¿De qué sirve?
1|----------------------------------0-------------------|
2|--------------------------------------6---------------|
3|------------------------------------------7---5-4-----|
4|-5-7-7-5-7-5---5-7-7-5-7-5-----7----7---7---7-----5---|
5|-3-5-5-3-5-3---3-5-5-3-5-3---0----------------------7-|
6|------------------------------------------------------|

  Alguien tiene que pelear
  y no es fácil caminar por el filo del destino
1|-----------------------------------|
2|-----------------------------------|
3|-----------------------------------|
4|-5-7-7-5-7-5---5-7-7-5-7-5---3---5-|
5|-3-5-5-3-5-3---3-5-5-3-5-3---3---5-|
6|-----------------------------------|

Verso 9:

  Cuando estás en el Ring, ya no puedes salir
1|--------------------------------|
2|--------------------------------|
3|--------------------------------|
4|-2--3---5//7-7---2--3---//7-5-2-|
5|-0--3---3//5-5---0--3---//5-3-0-|
6|--------------------------------|

  Ahora estás en el Ring, la pelea es aquí
1|--------------------------------|
2|--------------------------------|
3|--------------------------------|
4|-2--3---5//7-7---2--3---//7-5-2-|
5|-0--3---3//5-5---0--3---//5-3-0-|
6|--------------------------------|

  Cuando estás en el Ring, ya no puedes salir
1|--------------------------------|
2|--------------------------------|
3|--------------------------------|
4|-2--3---5//7-7---2--3---//7-5-2-|
5|-0--3---3//5-5---0--3---//5-3-0-|
6|--------------------------------|

  Ahora estás en el Ring, la pelea es aquí
1|--------------------------------|
2|--------------------------------|
3|--------------------------------|
4|-2--3---5//7-7---2--3---//7-5-2-|
5|-0--3---3//5-5---0--3---//5-3-0-|
6|--------------------------------|

Verso 10:

1|--------------------------------|
2|--------------------------------|
3|--------------------------------|
4|-2--3---5//7-7---2--3---//7-5-2-|
5|-0--3---3//5-5---0--3---//5-3-0-|
6|--------------------------------|

1|--------------------------------|
2|--------------------------------|
3|--------------------------------|
4|-2--3---5//7-7---2--3---//7-5-2-|
5|-0--3---3//5-5---0--3---//5-3-0-|
6|--------------------------------|
Este fichero es trabajo propio de su transcriptor y representa su interpretación personal de la canción. El material contenido en esta página es
para exclusivo uso privado, por lo que se prohibe su reproducción o retransmisión, así como su uso para fines comerciales.

© LaCuerda.net · Aviso Legal · Privacidad