Acordes de Guitarra » R »Ragazzi » Alguien menos tú (Tab)

Alguien menos tú
Ragazzi

Letras, Notas, Punteos, Tablaturas y Acordes de Guitarra (Tabs & Chords)

  • Letra y Acordes
    INTRO: A-C#m-D-E  (2 veces)
    A                       C#m
    Dime, que diablos te pasó,
            F#m                  E
    Porque cambias como un camaleón,
             Bm                     D
    Hoy me quieres, mañana tienes dudas,
             E
    Eso me duele.
         A                      C#m
    Si piensas que soy un masoquista,
          F#m                        E
    Me revienta que jueguen con mi vida,
        Bm                     D
    Te amo, no hay duda que te amo,
              E       D-E
    Pero también... busco
     A                     C#m
    Alguien, que sepa definir lo que siente,
         D                    E
    
  • Tablatura
       A                          C#m            D                            E
    e|-------------------------4-5-0-----------------------------------------------------0-----0-----0-
    B|-3/5-5-5--5-5--5---5-5-7-------5-5--5-5--5--5-3/5-5-5/3--3-3/2--2*0------0-----------3-----3-3---
    G|---------------------------------------------------------------------2------1/2-2------2---------
    D|-------------------------------------------------------------------------------------------------
    A|-------------------------------------------------------------------------------------------------
    E|-------------------------------------------------------------------------------------------------
    
       A                          C#m            D                            Dm6/9
    e|-------------------------4-5-0----------------------------------------------0---------0----------
    B|-3/5-5-5--5-5--5---5-5-7------5-5--5-5--5--5-3/5-5-5/3--3-3/2--2*0-------0--3------3-----3-------
    G|---------------------------------------------------------------------2------2----2---------------
    D|----------------------------------------------------------------------------3--3-----------------
    A|-------------------------------------------------------------------------------------------------
    E|-------------------------------------------------------------------------------------------------
    
    
    INTRO: A-C#m-D-E-A-C#m-D-Dm6/9
    
    
    
  • Tablatura
       A            C#m           D                       E
    e--0-0-0--2-4-5--0-0-0------0--------------------------0---2-0----0|
    B-5-5-5-5-------5-5-5-5--3/5--5--3-3-3--2-2-2--0-0-0--0--0-----0-2-|
    G----------------------------------------------------2-------------|
       A            C#m           D                        Dm
    e--0-0-0--2-4-5--0-0-0------0---------------------------1------|
    B-5-5-5-5-------5-5-5-5--3/5--5--3-3-3--2-2-2--0-0-0----3------|
    G-------------------------------------------------------2------|
    
     A                    C#m
    Dime, que diablos te pasó,
           F#m               E
    que cambias, como cambio yo,
               Bm                   D
    hoy me quieres, mañana tienes dudas,
              E
    eso me duele.
    
    Si piensas, que soy un masoquista,
    me revienta que jueguen con mi vida,
    
  • +
    ¡Colabora con nosotros!
    Envíanos tu versión de esta canción

Letra de Alguien menos tú
Dime, que diablos te pasó,
Porque cambias como un camaleón,
Hoy me quieres, mañana tienes dudas,
Eso me duele.
Si piensas que soy un masoquista,
Me revienta que jueguen con mi vida,
Te amo, no hay duda que te amo,
Pero también... busco
Alguien, que sepa definir lo que siente,
Que no se disfrace de verdad cuando miente,
Alguien que entienda y se conecte a mi mundo,
Que no me critique y que comparta mis gustos...
Alguien, alguien,
Alguien, alguien,
Menos tú...
Alguien, alguien,
Alguien, alguien,
Menos tú...
SE REPITE EL INTRO 1 VEZ
Si piensas, que soy un masoquista,
Me revienta que jueguen con mi vida,
Te amo, no hay duda que te amo,
Pero también... busco
Alguien que sepa defienir lo que siente,
Que no se disfrace de verdad cuando miente,
Alguién que entienda y se conecte a mi mundo,
Que no me critique y que comparta mis gustos.
Alguien, alguien,
Alguien, alguien,
Menos tú...
Alguien, alguien,
Alguien, alguien,
Menos tú...
Alguien, alguien,
Alguien, alguien,
Menos tú...
Menos tú...
Alguién menos tú.

ESTA CANCION ES SUPER CHIDA. LAS OTRAS
TRANSCRIPCIONES ESTAN UN POCO MAL ESTA ES LA ORIGINAL
ASI QUE ESPERO Y LES GUSTE...SE LA DEDICO A LA
MUJER A LA QUE QUIERO Y SI TIENEN DUDAS ESCRIBANME
A MI CORREO BUENO BYE.



© LaCuerda.net · Aviso Legal · Privacidad