Acordes de Guitarra » Q »Quirquiña » Clausura (Tab)

Clausura
Quirquiña

Letras, Acordes y Tabs para Guitarra, Bajo y Ukulele

  • Intro:  B-GmF#-E-F#
    
    e|--------------------------------------------------------------------
    B|------------2--5---4-4---(7---5-5---4-4)x2---2----------------------
    G|--------4---------------------------------------4--3----------------
    D|----4---------------------------------------------------------------
    G|--------------------------------------------------------------------
    A|--------------------------------------------------------------------
    E|--------------------------------------------------------------------
    
    
    
    B                  F#
    No, no me pidas perdón
    G#m
    ya es muy tarde para que vuelvas
           D#m
    a llenarme de promesas
           G#m                      F#
    promesas vanas, que nunca cumplirás
    
  • e--0---------0-------------------2--0--------2--0-----------
    B----4--2--0---4--2--0--2--4-4---------4--0-------4--0---2--
    G-----------------------------------------------------------
    D-----------------------------------------------------------
    A-----------------------------------------------------------
    E-----------------------------------------------------------
    
    DO                            SOL 
    No,            no  me pidas perdón
               LAm                 FA 
    ya es muy tarde para que vuelvas
          LAm           FA 
    ha llenarme de promesas,
              DO        FA         SOL 
    promesas vanas que nunca cumplirás
    
               FA      DO 
    Por que no puedes ver
    SOL      FA        DO 
    que no estoy como ayer
    
  • Intro: F#-F#7 B G#m Eb F#-F#7  x2
    
    B                  F#
    No, no me pidas perdón
              G#m
    ya es muy tarde para que vuelvas
         F#
    a llenarme de promesas
             Eb                     F#-F#7
    promesas vanas, que nunca cumplirás
    
                B                 G#m
    ¿Por qué no puedes ver que no estoy como ayer?
      Eb                   F#                     F#7
    llorando tu condena, tomando hasta que amanezca
                B                   G#m
    ¿Por qué no puedes ver que ésto se terminó?
             Eb
    ¿Cuántas veces me has dejado?
             F#                   B  F# Eb F# B  F# Eb F#
    
  •      B           F#           G#m         E
    E   |-|0|-|-|-   |-|0|-|-|-   |-|0|-|-|-   |-|-|-|-
    G   |-|0|-|0|-   |-|0|-|-|-   |-|0|-|-|-   |-|-|-|-
    B   |-|0|-|0|-   |-|0|0|-|-   |-|0|-|-|-   |0|-|-|-
    D   |-|0|-|0|-   |-|0|-|0|-   |-|0|-|0|-   |-|0|-|-
    A   |-|0|-|-|-   |-|0|-|0|-   |-|0|-|0|-   |-|0|-|-
    E   |-|0|-|-|-   |-|0|-|-|-   |-|0|-|-|-   |-|-|-|-
       /            /                4        /
    
    
    Intro:
                   E       B               E       B
    e----------9---12---11-11---14--12--11p12---11-11---
    G------12-------------------------------------------
    B--11-----------------------------------------------
    A---------------------------------------------------
    E---------------------------------------------------
    
                  E       B       F#
    e---14--12-11p12---11-11---9-------------
    
  • porsiacael numero que aparece en pàrentesis
    es la cantidad de veces que debes tocar
    ej
    6(8) = 6 6 6 6 6 6 6 6
    
    Intro
             x3              x3               x3         x3
    E|----|-2----|-2--|-4-|-4024-|-404-|---|-7----|---|--9----|--9---|
    A|--2-|--0-2-|--2-|---|------|-----|-7-|--5-7-|-9-|-9-7-9-|-9-9--| x2
    D|----|------|----|---|------|-----|---|------|---|-------|------|
    G|----|------|----|---|------|-----|---|------|---|-------|------|
    
    No, no me pidas perdon
    E|-------|------|-4(7)-|------|------|-------|
    A|--2(8)-|-1(8)-|------|-6(8)-|-7(8)-|-9(8)--|
    D|-------|------|------|------|------|-------|
    G|-------|------|------|------|------|-------|
    
    por que no
    E|-------|-4(8)-|------|-------|
    A|--2(8)-|------|-7(8)-|-9(8)--| x2
    D|-------|------|------|-------|
    G|-------|------|------|-------|
    
    E|-------|------|-0-|-2--|
    A|--2(8)-|-1(8)-|---|----| x2
    D|-------|------|---|----|
    G|-------|------|---|----|
    
    no no me
                       x4
    E|-------|------|------|-4(8)-|------|------|-------
  • +
    ¡Colabora con nosotros!
    Envíanos tu versión de esta canción

Letra de Clausura
No, no me pidas perdón
ya es muy tarde para que vuelvas
ha llenarme de promesas,
promesas vanas que nunca cumplirás
Por que no puedes ver
que no estoy como ayer
llorando tu condena
tomando hasta que amanezca
Por que no puedes ver
que esto se termino
cuantas veces me has dejado
cuantas veces me quedado solo.....
No, no me pidas perdón
puede ser que me arrepienta
pero no aguanto mas tormentas
quiero sentarme en la cama
sin escuchar tus palabras
Por que no puedes ver
que no estoy como ayer
llorando tu condena
tomando hasta que amanezca
Por que no puedes ver
que esto se termino
cuantas veces me has dejado
cuantas veces me quedado solo.....




[Clausura chords][Clausura cifra]
© LaCuerda.net · aviso legal · privacidad · es · en · pt · contacto