Acordes de Guitarra » P »Punk2flaz » Chika especial (Tab)

Chika especial
Punk2flaz

  • Letra y Acordes
    E|---------------------------------------------------------------------|
    B|---------------------------------------------------------------------|
    G|----6----4-------6---4--------6---4-----------9------8-----6---------|
    D|-------------4-----------4--------------4-----------------------8----|
    A|---------------------------------------------------------------------|
    E|---------------------------------------------------------------------|
    
    
    E|---------------------------------------------------------------------|
    B|---------------------------------------------------------------------|
    G|----6----4-------6---4--------6---4-----------9------8-----6---------|
    D|-------------4-----------4--------------4-----------------------8----|
    A|---------------------------------------------------------------------|
    E|---------------------------------------------------------------------|
    
    
            B
    Aqui estoy solo de nuevo
            F# 
    Pensando en mi habitacion
    
  • +
    ¡Colabora con nosotros!
    Envíanos tu versión de esta canción

Letra de Chika especial
Aqui estoy solo de nuevo
Pensando en mi habitacion
En tantas cosas que
No puedo olvidar
En mi mente estas
No me puedo concentrar
Me arden los ojos
Preferiria descansar
Si cierro los ojos me dejo vencer y quiero ganar
Y si estoy despierto no puedo pensar
Y sè que nos conocemos muy poco Ahhh
Tambièn se que te quiero un monton oohh
PRECORO:
Y recordar todo con el corazooooon
Y esque contigo me siento distinto
Me da miedo tenerte pero no escucharte
Cierro los ojos te pierdo en mi alma
Como quiero ganarme a esa chica especial
Yo que pensaba ya
En nunka mas soñar
Yo que esperaba que
Pronto todo acabe ya
Apareciste en mi vida
Y todo cambio
Ahora estoy feliz
Vivo por tu amor
Y sè que nos conocemos muy poco Ahhh
Tambièn se que te quiero un monton oohh
PRECORO:
Y recordar todo con el corazooooon
Y esque contigo me siento distinto
Me da miedo tenerte pero no escucharte
Cierro los ojos te pierdo en mi alma
Como quiero ganarme a esa chica especial
Ya no puedo mas
Mas quiero verte
siento que hay algo dentro de mi
Que me hace feliz
Con sus ojos de bebe
toda mi felicidad
esque contigo
yo quiero estar
Y esque contigo me siento distinto
Me da miedo tenerte pero no escucharte
Cierro los ojos te pierdo en mi alma
Como quiero ganarme a esa chica especial



© LaCuerda.net · aviso legal · privacidad · contacto
DINAMICO