Acordes de Guitarra » P »Punk2flaz » Cuanto más debo llorar (Tab)

Cuanto más debo llorar
Punk2flaz

Letras, Notas, Punteos, Tablaturas y Acordes de Guitarra (Tabs & Chords)

  • Tablatura
    |--16----------16------------------16-------16-----------------------|
    |----17----------17---------17-------17---17--17-(17)-~---17---------|
    |------16-(16)~----16-(16)-~--16----------------------------16---9~~-|
    |--------------------------------------------------------------------|
    |--------------------------------------------------------------------|
    |--------------------------------------------------------------------|
    
    Guitarra 2:(Electrica)-marcado
    |---------|-------------------|----------------|
    |---------|-------------------|----------------|
    |-5--(5)--|-------------------|----------------|
    |-5--(5)--|-9--7--9--7--9--11-|-7--9--7--9--11-|
    |-7--(7)--|-9--7--9--7--9--11-|-7--9--7--9--11-|
    |---------|-7--5--7--5--7--9--|-5--7--5--7--9--|
    
    Guitarra 3:(Acustica)-rasgeado
      E  D  E  D  E  D  E  F#
    |--------------------------|
    |-7--5--7--5--7--5--7--9---|
    |-9--7--9--7--9--7--9--11--| <--- x2
    
  • +
    ¡Colabora con nosotros!
    Envíanos tu versión de esta canción

Letra de Cuanto más debo llorar
Guitarra 2:(Electrica)-marcado
Guitarra 3:(Acustica)-rasgeado
___________________________________________
Guitarra 2:
PM.........................
____________________________________________
Guitarra 1:
Guitarra 2:
___________________________________________________________
Las notas entre parentesis son acusticas y las otras kintas
___________________________________________________________
Tan solo kiero ganarme tu querer
Trato llenarme de valor
Dime cuanto mas debo lloraaaar
para quitarme todo este doloooor
Dime cuanto mas debo esperaaaar
Tan solo kiero un poco de tu amooor wooo
___________________________________________________________
Guitarra 2:-rasgeado
Guitarra 3:-rasgeado
__________________________________________________________
Tan solo kiero recuperar mi sentido
(ven ami)yo kiero estar contigo
(Ven ami)te kiero aki conmigo
porque no puedo estar contigo
porque no podemos ser mas que amigos
deja que el olvido sea un castigo
ya no se que hacer contigo
Dime cuanto mas debo lloraaaar
para quitarme todo este doloooor
Dime cuanto mas debo esperaaaar
Tan solo kiero un poco de tu amooor wooo
_________________________________________________________
Guitarra 3:-rasgeado
_________________________________________________________
Guitarra 2:
PM .......... .......... .......... ..........
_________________________________________________________
Guitarra 3:
Guitarra 1:
Guitarra 2:
PM .......... .......... .......... ..........
_________________________________________________________
Dime cuanto mas debo lloraaaar
para quitarme todo este doloooor
Dime cuanto mas debo esperaaaar
Tan solo kiero un poco de tu amooor wooo
Dime cuanto mas debo lloraaaar -|
para quitarme todo este doloooor |letra de fondo pero
Dime cuanto mas debo esperaaaar |pero los acordes
Tan solo kiero un poco de tu amooor wooo -|
___________________________________________________________
Guitarra 3:-rasgeado
____________________________________________________________
Guitarra 2:
PM.........................
___________________________________________________________
Guitarra 1:
Guitarra 2:



© LaCuerda.net · Aviso Legal · Privacidad