Acordes de Guitarra » P »los Prisioneros » Nunca quedas mal con nadie (Tab)

Nunca quedas mal con nadie
los Prisioneros

Letras, Acordes y Tabs para Guitarra, Bajo y Ukulele

  •         Intro:  SOL RE  DO7  SOL DO SOL DO MIm SOL RE
    
                   SOL               DO              RE
    A.      !Dime!  Tu te crees que protestas?
                   SOL                DO               RE    
            !Dime!  Me aseguras que protestas?
                   SOL              DO       RE    DO# DO   RE
            !Dime!  Tu te crees un rebelde o algo asi?
                   SOL              DO              RE
            !Oye!  Tu te quejas de la polucion?
                   SOL           DO          RE
            Hablas sobre la automatizacion
                   SOL               DO           RE DO# DO            RE
            !Dime!  Tu te crees un juglar moderno o algo asi?
    
    
               DO               RE                   SOL                          FA#m
    B.      Defiendes A LA humanidad, lloras porque el mundo esta mal
               DO              RE             SOL                        FA#m
            Criticas a la sociedad, dices tu que todo deberia cambiar
    
  • |-2----------|-3-2---------|-------0-----|----------0---|
    |----3-----2-|-----3-----3-|-3-------3---|-------2----2-|
    |-------2----|--------2----|----0------0-|----2---------|
    |------------|-------------|-------------|-2------------|
    |------------|-------------|-------------|--------------|
    |------------|-------------|-------------|--------------|
    
    
       RE SOL LA x3    SOL LA
                   
       RE          SOL          LA
    A. Dime! Tu te crees que protestas?
       RE          SOL          LA
       Dime! Me aseguras que protestas?
       RE          SOL        LA   SOL      LA
       Dime! Tu te crees un rebelde o algo así?
       RE         SOL          LA
       Oye! Tu te quejas de la polución?
       RE           SOL      LA
       Hablas sobre la automatización
    
  • BANDA: LOS PRICIONEROS
    CANCION : NUNCA QUEDAS MAL CON NADIE
    TABS HECHAS POR: "BLU"
    
    INTRO:
    G--7----------------------------
    D---------5----7----------------  [-- SI QUIEREN PUEDEN OBVIAR ESTA PARTE
    A-------------------------------      ( NO TOCARLA )
    E-------------------------------
    
    |------REDOBLE DE BATERIA------|
    
    G-------------------------------
    D-------------------------------
    A-55-0-3-55-3-0-----------------
    E---------------33-0-3-55-3-0--- X2
    
    G-------------------------------
    D-----------------------7---7---
    A-55-0-3-55-3-0-----------------
    E---------------33-00-5---5-----
    
    G-------------------------------
    D-------------------------------
    A-----2-5--0--000000000000------
    E-3333--------------------------
    
    VERSO 1:
    
    G-------------------------------
    D-------------------------------
    A-55-0-3-55-3-0-----------------
    E---------------33-0-3-55-3-0--- X2
    
    
    G-------------------------------
    D-----------------------7---7---
    A-55-0-3-55-3-0-----------------
    E---------------33-00-5---5-----
    
  • Les doy la tablatura del bajo para uno de los mejores
    temas de la voz de los 80 de los Prisioneros.
    
    Escuchen el tema y adecúen los tiempos.
    
    Intro
    guitarra: re- sol- la
    
    bajo:
    1/--------------------------------|--------------------------------|
    2/--------------------------------|--------------------------------|
    3/-5-5-0-3-5-5-3-0----------------|-5-5-0-3-5-5-3-0----------------|
    4/----------------3-3-0-3-5-5-3-0-|----------------3-3-0-3-5-5-3-0-|
           
    1/--------------------------------|-------------|
    2/--------------------------------|-------------|
    3/-5-5-0-3-5-5-3-0----------------|--------2-5--|
    4/----------------3-3-0-3-5-5-3-0-|-3-3-3-3---5-|
    
    CANCION:
    
    Dime....tu te crees que protestas....me aseguras que protestas.
    1/--------------------------------|--------------------------------|
    2/--------------------------------|--------------------------------|
    3/-5-5-0-3-5-5-3-0----------------|-5-5-0-3-5-5-3-0----------------|
    4/----------------3-3-0-3-5-5-3
  • Intro
    
    1/--------------------------------|---------------------------------|
    2/--------------------------------|---------------------------------|
    3/-5---0-3-5-5-3-0-------2-0-0----|-5-5-0-3-5-5-3-0-------2-0-0-----|
    4/-----------------3-3-3-------0-5|-----------------3-3-3--------0-5|
    
    1/----------------------------------------------------|
    2/----------------------------------------------------|
    3/-5-5-0-3-5-5-3-0-----2-0-0-------------2-5----------|
    4/----------------3-3-3------4-4-3-3-3-5-----5--555555|
    
    Estrofa 1
    
    1/--------------------------------|---------------------------------|
    2/--------------------------------|---------------------------------|
    3/-5-5-0-3-5-5-3-0-------2-0-0----|-5-5-0-3-5-5-3-0-------2-0-0-----|
    4/-----------------3-3-3-------0-5|-----------------3-3-3--------0-5|
    
    1/----------------------------------------------------------|
    2/------------------------------------5------5------7------7|
    3/-5-5-0-3-5-5-3-0-----2-0-0---------5------5------7------7-|
    4/-------
  • +
    ¡Colabora con nosotros!
    Envíanos tu versión de esta canción

Letra de Nunca quedas mal con nadie
A. !Dime! Tu te crees que protestas?
!Dime! Me aseguras que protestas?
!Dime! Tu te crees un rebelde o algo asi?
!Oye! Tu te quejas de la polucion?
Hablas sobre la automatizacion
!Dime! Tu te crees un juglar moderno o algo asi?
Criticas a la sociedad, dices tu que todo deberia cambiar
En el escenario folclorizas tu voz "Muera la ciudad y su contaminacion."
Con tus lindas melodias y romantica simpatia
Nunca quedas mal con nadie.
A. !Oye! Tu me dices que protestas?
!Pero! Tu postura no molesta
!Dime! Si tu fin es algo atacar o ganar aplausos.
B. Tu te quejas de las bombas, hablas que con el planeta van a acabar
Pero nunca das tu nombre tienes miedo a quedar con alguien mal
En las pe~as, facultades y en la television
Junto a los artesas y conscientes esnob
Te crees revolucionario y acusativo
Pero nunca quedas mal con nadie.
C. Nunca quedas mal, quedas mal con nadie (2 veces)
Nunca quedas mal con nadie.
Eres una mala copia de un gringo hippie.
Tu guitarra oye imbecil barbon
Se vendio al aplauso de los cursis conscientes
Contradices toda tu protesta famosa
Con tus armonias rebuscadas y hermosas
Eres un artista y no un guerrillero
Pretendes pelear y solo eres una mierda buena onda.
D. Comete tu miedo a la bomba de neutrones
Quedate tu poesia y tus razones, cortala con la selva de cemento
No aguanto tus artisticos lamentos, tu bolsito y tu poncho artesanal
Tu cultura cursi me cae muy mal, tu protesta a mi me da igual
Porque nunca quedas mal con nadie.




[Nunca quedas mal con nadie chords][Nunca quedas mal con nadie cifra]
© LaCuerda.net · aviso legal · privacidad · es · en · pt · contacto