Acordes de Guitarra » P »Porter » Bailando con mi virginidad (Tab)

Bailando con mi virginidad
Porter

Letras, Acordes y Tabs para Guitarra, Bajo y Ukulele

  • TZV...
    
    INTRO:(0:22)
    G--------------------------------------------|
    D--------------------------------------------|
    A-2~---4~-2~---4~-2~---4~-2~---4~--2~---4~---|
    E---------------------------------0----------|
    
    G----------------------------------------------------|
    D----------------------------------------------------|
    A-2~---4~-2~---4~-2~---4~-2~---4~-2~---4~--2~---4~---|
    E-----------------------------------------0----------|
    
    G----------------------------------------------|
    D----------------------------------------------|
    A-2~---4~-2~---4~-2~---4~--2~---4~-2~---4~-----|
    E-------------------------0----------------0---|
    
    G-------------------|
    D-------------------|
    A-2~---4~-2~---4~---|
    E-------------------|
    
    MINUTO 2:15
    G----------------------------------------------------------|
    D----------------------------------------------------------|
    A-----------------6666666666666666-44444444444-16/17/20/---|
    E-666666666666666------------------------------------------|
    
    G-------------------------
  • +
    ¡Colabora con nosotros!
    Envíanos tu versión de esta canción






[Bailando con mi virginidad chords][Bailando con mi virginidad cifra]
© LaCuerda.net · aviso legal · privacidad · es · en · pt · contacto