Acordes de Guitarra » P »Porter » Host of a ghost (Tab)

Host of a ghost
Porter

Letras, Acordes y Tabs para Guitarra, Bajo y Ukulele

  • G   D   Em               C
    I insist that you are no long my lover,
    G         D   Em              C
    you passed out and you didn´t even noticed,
    G D     Em            C               G
    I think in possession when i see your eyes,
    D     Em                C         G
    Freud will be very very very very mad
    G                            Em
    SO SO SO SO SO SO SO SO SO...SORRY YOU´RE GONE
    G                             Em
    SO SO SO SO SO SO SO SO SO... DEEP IN MY MIND.
    G   D   Em                 C
    LOVELY, LOVELY LOVELY TIMES, NOTHING BUT (3X).
    G   D
    Lovely(x2)
    G
    Love
    
    
    
  •  Aquí les dejo esta canción,
    es de mis Favoritas de Porter
    junto con Girl y Hansel & Gretel,
    pronto subiré también esas dos…
    
    
    INTRO:
    
    G|-----------------------------------------------------------------|
    D|-3333333333333-1-----------------3333333333333-1-----------------|
    A|-----------------3333333333333-1-----------------3333333333333-1-|
    E|-----------------------------------------------------------------|
    
     I insist…
    
    G|-----------------------------------------------------------------| x2
    D|-3333333333333-1-----------------3333333333333-1-----------------|
    A|-----------------3333333333333-1-----------------3333333333333-1-|
    E|-----------------------------------------------------------------|
    
     Maaaa…
    
    e|------------4------------4------------4------------4-| x2
    B|----------6------------6------------6------------6---|
    G|-55-55-55-----55-55-55-----55-55-55-----55-55-55-----|
    D|-----------------------------------------------------|
    
     Lovely, lovely…
    G|------------------------|---
  • +
    ¡Colabora con nosotros!
    Envíanos tu versión de esta canción

Letra de Host of a ghost
I insist that you are no long my lover,
you passed out and you didn´t even noticed,
I think in possession when i see your eyes,
Freud will be very very very very mad
SO SO SO SO SO SO SO SO SO...SORRY YOU´RE GONE
SO SO SO SO SO SO SO SO SO... DEEP IN MY MIND.
LOVELY, LOVELY LOVELY TIMES, NOTHING BUT (3X).
Lovely(x2)
Love
YOU ARE A HOST, OF A GHOST
YOU ARE A HOST, OF A GHOST
YOU ARE A HOST, YOU ARE A HOST, OF A GHOST
YOU ARE A HOST, OF A GHOST, OF A GHOST, OF A GHOST
(son los mismos acordes en la cancion)
LOVELY, LOVELY LOVELY TIMES, NOTHING BUT...
LOVELY, LOVELY LOVELY TIMES, NOTHING BUT...
LOVELY, LOVELY LOVELY TIMES, NOTHING BUT...
LOVELY, LOVELY LOVELY TIMES, NOTHING BUT...
LOVELY, LOVELY LOVELY TIMES, NOTHING BUT...




[Host of a ghost chords][Host of a ghost cifra]
© LaCuerda.net · aviso legal · privacidad · es · en · pt · contacto