Acordes de Guitarra » P »Pito Pérez » Lupita (Tab)

Lupita
Pito Pérez

Letras, Acordes y Tabs para Guitarra, Bajo y Ukulele

  •            MI    FA#
          Prefiero morir 
    
    SI7               MI FA# SOL#
        a no estar contigo
    
        SOL    FA#
    no puedo vivir feliz
    
    SI7      MI  LA  MI 
         sin ti
    
               FA#
    No puedo pedir
    
    SI7            MI  FA#  SOL#
        que tu te vayas 
    
    SOL         FA#
    por que si tu te vas 
    
  •       SIbdim7    FA#
          Prefiero morir
    
    SI7               MI FA# SOL#
        a no estar contigo
    
        SOL    FA#
    no puedo vivir feliz
    
    SI7      MI  LA  MI
         sin ti
    
      SIbdim7    FA#
    No puedo pedir
    
    SI7            MI  FA#  SOL#
        que tu te vayas
    
    SOL         FA#
    por que si tu te vas
    
  • Este es el autentico solo de lupita ya que los demás tienen fallas, este esta muy bien corregido
     
    e-------------------------------------------------------12*-------
    b---------------------------------------------------12*-----7*-9~~
    g----------------------11~~~--------------------------------------
    d----6-7-6-7-6-------------------6-7-6-7-7/9-7-6------------------
    a-/7-----------7-7/9----------/7-----------------7----------------
    E-----------------------------------------------------------------
    
       
    e-----------------------------------------------------------9----
    b----------10-12-12b14--12b14r12------------9--------12b14-------
    g-/9-8~-9-------------------------11b12r11-----11p9--------------
    d----------------------------------------------------------------
    a----------------------------------------------------------------
    E----------------------------------------------------------------
    
    
    e--------------9--------------9--------------9--------------9----
    b--12p9--1
  • Artista: Pito Perez
    Cancion: Lupita
    Tabber: Jacobo
    
    Este es el solo correcto de lupita..... Practikenlo esta sencillo.... 
    
    e-----------------------------------------------------(12)------------
    B-------------------------------------------------(12)----(7)-9vvv----
    G--------------------11vvv--------------------------------------------
    D-----6-7-6-7-6-----------------6-7-6-7-7/9-7-6-----------------------
    A--/7------------7/9--------/7------------------7---------------------
    E---------------------------------------------------------------------
    
    
    e-------------------------------------------------------9-------12b14-
    B--------10-12-12b14-12b14r12p10h12-------9-------12b13---12p9--------
    G-/9-8-9----------------------------11b12---11p9----------------------
    D---------------------------------------------------------------------
    A---------------------------------------------------------------------
    E---------------------------------------------------------------------
      
  • Intro:
    eI-0-I
    BI-0-I
    GI-1-I
    DI-2-I
    AI-2-I
    EI-0-I
    
    Verso I y II:
    
    eI---2-----2-----2-----2-----0-----2-----4-----3-----
    BI---2-----2-----2-----2-----0-----2-----4-----3-----
    GI---2-----2---4-4---4-4-----1-----2-----4-----3-----
    DI-4-----4-----4-----4-----2-----4-----6-----5-------
    AI-4-----4-----22----22----2-----4-----6-----5-------
    EI-22----22----------------00----22----44----33------
                                     Verso
                                      I        II 
    eI---2-----2-----2------2--I-------------I-----I
    BI---2-----2-----2------2--I-------------I-----I
    GI---2-----2---4-4----4-4--I-1111-7777-1-I--7--I
    DI-4-----4-----4------4----I-2222-7777-2-I--7--I
    AI-4-----4-----22-----22---I-2222-5555-2-I--5--I
    EI-22----22----------------I-0000------0-I-----I
    
    Coro I
                      
    eI-------------------------------------------I
    BI-------------------------------------------I
    GI-7-7777-1-1111-----------------------------I
    DI-7-7777-2-2222-4-4-4567-7-7777-
  • Verso                               
    
    G-6--                 
    D---6-              
    A-----
    E-----
    
    
    G---------------------------------------------------------------------------------------
    D-------------------------------------------------------2-------------------------------
    A--------------2--2--2--2--------------------------------4--2-2--2--2--2------------2---
    E-2--2--2--2---------------0--0--2--2--4--4--3--3--2--2---2----------------0--0-4-4--4-0
    
    
    G------------------------------------------------------------------------------------
    D-------------------------------------------------------2----------------------------
    A--------------2--2--2--2--------------------------------4--2-2--2--2--2---2/14------
    E-2--2--2--2---------------0--0--2--2--4--4--3--3--2--2---2-------------------------0
    
    Coro
    
    G------------------------------------------------------------------------------------------
    D-----------------------------------------------6---6--------------------------
  • +
    ¡Colabora con nosotros!
    Envíanos tu versión de esta canción

Letra de Lupita
Prefiero morir
a no estar contigo
no puedo vivir feliz
sin ti
No puedo pedir
que tu te vayas
por que si tu te vas
que va a pasar
que va a pasar
Veneno,
veneno tu me das aah aah aah
mi Lupita no me dejes jamás
Yo no comprendo
los minutos que he vivido en el pasado
y ahora entiendo que el momento más hermoso de mi vida
lo he pasado junto a ti
Sin podértelo decir personalmente
es que tu frenesí
me va a matar
me va a matar
Veneno
veneno tu me das aah aah aah

mi lupita no me dejes jama - as
mi lupita
veneno tu me das aah aah aah
mi lupita no me dejes jamás
'Solo de guitarra'
Veneno
veneno tu me das aah aah ahh
mi lupita no me dejes jama - as

mi lupita
veneno tu me das aah aah aah
mi lupita no me dejes
mi lupita no me dejes
mi lupita no me dejes
jamás
(¡¡¡¡¡EPABKL vive!!!!!!!!?)




[Lupita chords][Lupita cifra]
© LaCuerda.net · aviso legal · privacidad · es · en · pt · contacto