Tablatura para Bajo de los Piojos: Yira - Yira
Conexión · Inscripción
Letras y Acordes
Pantalla Completa
Imprimir
Versión Texto
Añadir Favorito
Otras Versiones

Mostrar Diagramas
Desfile Automático
Formato del Texto


Yira - Yira(BAJ)

los Piojos

calidad:
pioj0444
AUTOR: Enrique Santos Discépolo
ALBUM: Chac Tu Chac (1992)
Enviado por Sebastian
guenas!!! esta es el tabs de bajo para yira yira de los piojos 
no es muy difil solo hay k' escucharla esta completa con el sol 
de bajo la saque con la version en vivo de Omar Mollo pero tb 
sirve para la cumun, Espero k' la disfruten saludos!!! 
bye!!!! 

G|---------|----------|----------------------------------------------------------------------|
D|-12..-/7-|----------|----------------------------------------------------------------------|
A|---------|5(x)3/5(x)|5/7/5(x)---3(x)--------3(x)-------------5(x)-/1(X)-8(x)------8(x)----5|
E|---------|----------|----------------1(x)---------1(x)-/5(x)-----------------8(x)------/5--|
            \   x 3  /

G|----------------------------------------------|
D|----------------------------------------------|
A|5/7/5(x)---3(x)--------3(x)-----------5(x)---5|
E|----------------1(x)---------1(x)-5(x)----/5--|

ESTRIBILLO

G|--------------------------------------------|
D|--------------------------------------------|
A|-----------------3(x)--------3(x)---------5-|
E|8(x)-6(x)--1(x)--------1(x)-------1(x)--5---|

G|-----------------------------------------|
D|-----------------------------------------|
A|-----------------3(x)--------3(x)--------|
E|8(x)-6(x)--1(x)--------1(x)-------1(x)--5|Vuelve intro 


G|---------|----------|----------------------------------------------------------------------|
D|-12..-/7-|----------|----------------------------------------------------------------------|
A|---------|5(x)3/5(x)|5/7/5(x)---3(x)--------3(x)-------------5(x)-/1(X)-8(x)------8(x)----5|
E|---------|----------|----------------1(x)---------1(x)-/5(x)-----------------8(x)------/5--|
            \   x 3  /

G|----------------------------------------------|
D|----------------------------------------------|
A|5/7/5(x)---3(x)--------3(x)-----------5(x)---5|
E|----------------1(x)---------1(x)-5(x)----/5--|


ESTRIBILLO
G|--------------------------------------------|
D|--------------------------------------------|
A|-----------------3(x)--------3(x)---------5-|
E|8(x)-6(x)--1(x)--------1(x)-------1(x)--5---|

G|-------------------------------------------|
D|-------------------------------------------|
A|-----------------3(x)--------3(x)---------5|
E|8(x)-6(x)--1(x)--------1(x)-------1(x)--5--|


Solo 

G|------------------7-6-5---------------------------------------------------------------------|
D|-----6h7-7-6--6h7-------6h7-----------------------------------------------------------------|
A|--0-5--------5--------------5-6/8-8-7-5------5-7-8-8-8-777-7-8-888-8/13(x)--8(x)--3(x)/8---5|
E|----------------------------------------8-8-8---------------------------------------------5-|

G|----------------------------------------------|
D|----------------------------------------------|
A|5/7/5(x)---3(x)--------3(x)-----------5(x)---5|
E|----------------1(x)---------1(x)-5(x)----/5--|

ESTRIBILLO
G|--------------------------------------------|
D|--------------------------------------------|
A|-----------------3(x)--------3(x)---------5-|
E|8(x)-6(x)--1(x)--------1(x)-------1(x)--5---|

G|--------------------------------------------|
D|--------------------------------------------|
A|-----------------3(x)--------3(x)----------5|
E|8(x)-6(x)--1(x)--------1(x)-------1(x)1--5--| fin
Este fichero es trabajo propio de su transcriptor y representa su interpretación personal de la canción. El material contenido en esta página es
para exclusivo uso privado, por lo que se prohibe su reproducción o retransmisión, así como su uso para fines comerciales.

© LaCuerda.net · Aviso Legal · Privacidad