Acordes de Guitarra » P »los Piojos » Sudestada (Tab)

Sudestada
los Piojos

Letras, Acordes y Tabs para Guitarra, Bajo y Ukulele

  •      E   C#m7+/7 C#m7  A9/6  F#m           Am6
    E|---0--------7-------7------2-----2--2--2--0-4-0--2--2--2--0-4-0--|
    B|---0--------5-------5------0-----2---------------1---------------|
    G|---1--------5-------6------2-----2---------------2---------------|
    D|---2--------6-------6------2-----4---------------2---------------|
    A|---x--------x-------x------0-----4---------------0---------------|
    E|---x--------x-------x------x-----2---------------x---------------|
    
    
    Puente:
    E|----------------------------|
    B|----------------------------|
    G|-----------1----------1-----|
    D|-----2----2-2----2---2-2----|
    A|---2---3-------4---3--------|
    E|---0------------------------|
    
    
    
    E                        C#m
    
  • INTRO: E/C Am F#m E/C
    
    E/C
    Vivo en sudestada desde que recuerdo yo
    F#m               Am                E/C
    y por la vida no, pasa la via del sol
    E/C
    Nuestro pensamiento aqui varado se quedo
    F#m                Am                  E/C
    mezcla de sonrisa gris llanto feliz y dolor
    
    REPITE INTRO
    
    E/C
    Cuando la marea baja vez el basural
    F#m             Am                    E/C
    un natural color de historia sucia y de hoy.
    E/C
    Imagen difusa veo en la felicidad
    F#m                 Am                       E/C
    
  • E                        C#m
    Vivo en Sudestada desde que recuerdo yo
    F#m               Am             (C#m - C) x2
    y por la vida no pasa la via del sol
    E                        C#m
    Nuestro pensamiento aqui varado se quedo
    F#m                     Am              (C#m - C) x2
    mezcla de sonrisa gris, llanto feliz y dolor
    E                     C#m
    Cuando la marea baja vez el basural
    F#m             Am                      (C#m - C) x2
    un natural color de historia sucia y de hoy
    E                     C#m
    Imagen difusa veo en la felicidad
    F#m                 Am                   (C#m - C) x2
    Creo alcanzarla y no creo ahi estaba y se va
    
    C#m            G#m
    Sudestada todo se movio
    E              C#m
    
  • E                        C#m
    Vivo en Sudestada desde que recuerdo yo
    F#m               Am            E
    y por la vida no pasa la via del sol
    E                        C#m
    Nuestro pensamiento aqui varado se quedo
    F#m                     Am             E
    mezcla de sonrisa gris, llanto feliz y dolor
    E                     C#m
    Cuando la marea baja vez el basural
    F#m             Am                      E
    un natural color de historia sucia y de hoy
    E                     C#m
    Imagen difusa veo en la felicidad
    F#m                 Am                   E
    Creo alcanzarla y no creo ahi estaba y se va
    
    C#m            G#m
    Sudestada todo se movio
    F#m              C#m
    
  • ---------------------5-|-0---------------------------||
       Guitarra 1                                                                 
    
    Riff 1                   *
    -0---7---7--12--12---5-|-0-----3-------4-----3-------||
    -0---9---9--14--14---5-|-0-----5-------5-----5-------||
    -1---9---9--14--14---5-|-1-----5-------6-----5-------||
    -2---9---9--14--14---7-|-2-----5-------6-----5-------||
    -2---7---7--12--12---7-|-2-----3-------4-----3-------||
    -0-------------------5-|-0---------------------------||
       Guitarra 2                                                                 
    
    Riff 2           
    -0---0---2---5-|-----------------------------||
    -0---0---2---5-|-----------------------------||
    -1---1---2---5-|-----------1-------------1---||
    -2---2---4---7-|----2----2---2----2----2---2-||
    -2---2---4---7-|-------3-------4-----3-------||
    -0---0---2---5-|-0---------------------------||
       Guitarra 1                                                                 
    
  • Todas las transcripciones de este tema con armonica estan mal, esta es
    la verdadera transcripcion
    
    Armonica en E
    
    1er Solo
    
    1(2)b/largo 4
    
    (2)2 1-(2)2 1
    
    (2)2 1-(2)2 1
    
    
    
    2do Solo
    
    1(2)b/largo 4
    
    (4)b 4 5 4
    
    (4)b 4 5 4 4
    
    Espero que les sirva!
  • Hola! creo que así suena mejor que las sacadas anteriormente!
    
    armónica en E (MI)
    
    después de la 1ra estrofa
    
    4Largo 6 6bend
    (5) 6 7Largo
    6 5 4 6 5 4
    6 5 4 6 5 4Largo
    
    segundo solo
    
    4Largo 6 6bend
    (5) 6 7Largo
    (8) (8) (8) 7 8 7
    (8) (8) (8) 7 8 7 Largo
    
    fin
    3 4Largo (Varias veces)
    
    
    Creo que así suena mejor que las otras, a mi
    me suena espectacular!! Suerte!
    
    Leandro V.
  • +
    ¡Colabora con nosotros!
    Envíanos tu versión de esta canción

Letra de Sudestada
E/C
Vivo en sudestada desde que recuerdo yo
y por la vida no, pasa la via del sol
E/C
Nuestro pensamiento aqui varado se quedo
mezcla de sonrisa gris llanto feliz y dolor
REPITE INTRO
E/C
Cuando la marea baja vez el basural
un natural color de historia sucia y de hoy.
E/C
Imagen difusa veo en la felicidad
creo alcanzarla y no crei que ahi estaba y se va
Sudestada todo se movio
tus colores renuevan la suerte
hoy amanecer hoy es renacer
sudestada desolada ausente
REPITE INTRO
E/C
Desde la conciencia y la inconciencia se ve igual
quien no soño una vez que la emocion sea todo
E/C
y en una pendiente voy sin guias ni motor
rumbo a un umbral de ayer con la esperanza de hoy
Sudestada todo se movio
tus colores renuevan la suerte
hoy amanecer hoy es renacer
sudestada desolada ausente
Sudestada todo se movio
tus colores renuevan la suerte
hoy amanecer hoy es renacer
sudestada desolada ausente
FIN:E/C
E/C
E|0|
B|0|
G|1|
D|2|
A|3|
E|X|




[Sudestada chords][Sudestada cifra]
© LaCuerda.net · aviso legal · privacidad · es · en · pt · contacto