Acordes de Guitarra » P »los Piojos » Vals Inicial (Tab)

Vals Inicial
los Piojos

Letras, Acordes y Tabs para Guitarra, Bajo y Ukulele

  •      E                                             G
    Un puerto desierto, la boca del día, voy sin pensamiento,
                   A                  G                   A    A# A              E
    y un perro suicida, un barco sin velas, tu voz que me tira...    y subo a cubierta. 
    
                                                          G                   A
    El espejo del cielo me espera otra vida el mar mueve barcas, se lleva la mía
                  G                   A                        E
    saludo en mi mente a la gente querida .... y el puerto se aleja.
    
    G A G A
    
                 Em                  F#7                       F7         
    No puedo olvidarte, no puedo ocultarlo ya no, no voy a quedarme 
               E7                                    Em
    si paso la vida pidiendo perdón, que mueran los dioses ya viejos
                F#7
    viene la tormenta y aqui espero yo, 
                 F7                 E7
    todas tus salidas siempre me llevaron a alguna prision 
    
  •       Em           G               Em        Cm        Em      Cm
    e|-----------|-----------|--||------------|--3--|-----------|-----||--||
    b|-----------|-----------|--||------------|----4|-----------|-----||--||
    g|-----------|-----------|--||---0----2--4|--5--|---0----2-4|--5--||--||
    d|-2--2-0----|-1--1-0----|x2||-2---4-5----|-----|-2---4-5---|--5--||x2||
    a|--------3-2|--------3-2|--||------------|-----|-----------|-----||--||
    E|-----------|-----------|--||------------|-----|-----------|-----||--||
                                              PM.....
    Guitarra 2:
          Em           G               Em        Cm        Em      Cm
    e|--0-0-0-0-0|--3-3-3-3-3|--||--0-0-0-0-0-|-----|--0-0-0-0-0|-----||--||
    b|--0-0-0-0-0|--3-3-3-3-3|--||--0-0-0-0-0-|-----|--0-0-0-0-0|-----||--||
    g|--0-0-0-0-0|--4-4-4-4-4|--||--0-0-0-0-0-|-----|--0-0-0-0-0|-----||--||
    d|-2---------|-5---------|x2||-2----------|-----|-2---------|-----||x2||
    a|-----------|-----------|--||------------|-----|-----------|-----||--||
    E|-----------|-----------|--||------------|-----|-----------|-----||--||
    Guitarra 3:
    (efecto tremolo)
    e|-----------------------------------------------------------------||--||
    b|55555555555555555555555555555555555555555555555555555555555555555||--||
    
  • +
    ¡Colabora con nosotros!
    Envíanos tu versión de esta canción

Letra de Vals Inicial
Un puerto desierto, la boca del día, voy sin pensamiento,
y un perro suicida, un barco sin velas, tu voz que me tira... y subo a cubierta.
El espejo del cielo me espera otra vida el mar mueve barcas, se lleva la mía
saludo en mi mente a la gente querida .... y el puerto se aleja.
No puedo olvidarte, no puedo ocultarlo ya no, no voy a quedarme
si paso la vida pidiendo perdón, que mueran los dioses ya viejos
viene la tormenta y aqui espero yo,
todas tus salidas siempre me llevaron a alguna prision
todas tus mentiras quemaron mis ojos, cambiaron mi olor sobre la cubierta
recibo tu furia y todo tu rencor... No vas a quebrarme.
Un mar tan abierto, otra vez el dia, un tronco sostiene la esperanza mía
camino en las calles, ciudades vacias... y caigo en la arena.
Mordiendo tu nombre mi pecho respira estoy ya tan lejos,
donde yo quería, tu risa se escucha,
en la brisa en las noches que me robó tu alcohol... detesto tu risa.
Sería algo así:

Enviado por Martín Veccia.
Mar del Plata.
Argentina.
Críticas constructivas y sugerencias: axis@lycosmail.com




[Vals Inicial chords][Vals Inicial cifra]
© LaCuerda.net · aviso legal · privacidad · es · en · pt · contacto