Tablatura para Bajo de los Piojos: Yira - Yira
Conexión · Inscripción
Letras y Acordes
Pantalla Completa
Imprimir
Versión Texto
Añadir Favorito
Otras Versiones

Mostrar Diagramas
Desfile Automático
Formato del Texto


Yira - Yira(BAJ)

los Piojos

calidad:
pioj0442
AUTOR: Enrique Santos Discépolo
ALBUM: Chac Tu Chac (1992)
Enviado por Sebastián
Intro
G|-------|x2
D|-------|
A|-5(x7)-|
E|-------|

Pre-Verso
G|-------|x2
D|-------|
A|-5(x7)-|
E|-------|

Verso
G|-------|x3 |-------------|-------------------------|
D|-------|   |-------------|-------------------------|
A|-5(x7)-|   |-3(x5)-------|-3(x7)-------------5(x7)-|
E|-------|   |-------1(x5)-|-------1(x7)-5(x7)-------|

 |-------------------------|-----||-------------------|
 |-------------------------|-----||-------------------|
 |-1(x7)-------3(x7)-------|---5-||-5(x7)-3(x7)-------|
 |-------1(x7)-------1(x7)-|-5---||-------------1(x7)-|

 |-------------------------|-----||
 |-------------------------|-----||
 |-3(x7)-------------5(x7)-|---5-||
 |-------1(x7)-5(x7)-------|-5---||

Coro
G|-------------------------------------------|-----||
D|-------------------------------------------|-----||
A|-3(x7)-1(x7)-------3(x7)-------3(x7)-------|---5-||
E|-------------1(x7)-------1(x7)-------1(x7)-|-5---||

 |-------------------------------------------|
 |-------------------------------------------|
 |-3(x7)-1(x7)-------3(x7)-------3(x7)-------|
 |-------------1(x7)-------1(x7)-------1(x7)-|

Intro
G|-------|x2
D|-------|
A|-5(x7)-|
E|-------|

Pre-Verso
G|-------|x2
D|-------|
A|-5(x7)-|
E|-------|

Verso
G|-------|x3 |-------------|-------------------------|
D|-------|   |-------------|-------------------------|
A|-5(x7)-|   |-3(x5)-------|-3(x7)-------------5(x7)-|
E|-------|   |-------1(x5)-|-------1(x7)-5(x7)-------|

 |-------------------------|-----||-------------------|
 |-------------------------|-----||-------------------|
 |-1(x7)-------3(x7)-------|---5-||-5(x7)-3(x7)-------|
 |-------1(x7)-------1(x7)-|-5---||-------------1(x7)-|

 |-------------------------|-----||
 |-------------------------|-----||
 |-3(x7)-------------5(x7)-|---5-||
 |-------1(x7)-5(x7)-------|-5---||

Coro
G|-------------------------------------------|-----||
D|-------------------------------------------|-----||
A|-3(x7)-1(x7)-------3(x7)-------3(x7)-------|---5-||
E|-------------1(x7)-------1(x7)-------1(x7)-|-5---||

 |-------------------------------------------|
 |-------------------------------------------|
 |-3(x7)-1(x7)-------3(x7)-------3(x7)-------|
 |-------------1(x7)-------1(x7)-------1(x7)-|

Solo
G|------------------------------------|x2
D|------------------------------------|
A|-1/3-3-5-3-----------------5-5-7-5--|
E|-----------1-1-3-1-5-5-7-5----------|

Final del Solo
G|--------------------------|-----||
D|--------------------------|-----||
A|-3(x8)-------------5(x8)--|---5-||
E|-------1(x8)-5(x8)--------|-5---||

Verso
G|-------------------|-------------------------|-----||
D|-------------------|-------------------------|-----||
A|-5(x7)-3(x7)-------|-3(x7)-------------5(x7)-|---5-||
E|-------------1(x7)-|-------1(x7)-5(x7)-------|-5---||

Coro
G|-------------------------------------------|-------||
D|-------------------------------------------|-------||
A|-3(x7)-1(x7)-------3(x7)-------3(x7)-------|---5/x-||
E|-------------1(x7)-------1(x7)-------1(x7)-|-5-----||

 |-------------------------------------------------------||
 |----------------------------------------------------5--||
 |-3(x7)-1(x7)-------3(x7)-------3(x7)------------(5)----||
 |-------------1(x7)-------1(x7)-------1(x7)--(1)--------||

Escuchá la canción para saber el ritmo
Este fichero es trabajo propio de su transcriptor y representa su interpretación personal de la canción. El material contenido en esta página es
para exclusivo uso privado, por lo que se prohibe su reproducción o retransmisión, así como su uso para fines comerciales.

© LaCuerda.net · Aviso Legal · Privacidad