Letra y Acordes de los Piojos: Todo Pasa
Conexión · Inscripción
Letras y Acordes
Pantalla Completa
Imprimir
Versión Texto
Añadir Favorito
Otras Versiones

Mostrar Diagramas
Desfile Automático
Manipular Acordes
Formato del Texto


Todo Pasa

los Piojos

calidad:
pioj0391
AUTOR: Chuck Berry, Carl Perkins
ALBUM: 3er Arco
Enviado por Alejandro
+ Tablaturas de la Vanguardia del Rock          +
+ http://www.geocities.com/BourbonStreet/6195/  +
+++++++++++++++++++++++++++++++++++++++++++++++++

INTRO
                              X2                          
|--1p0--3--3/5--5--5--3--5--6--|--1--1--0--------1--0--|------------------------
|------------------------------|-----------3--1--------|------------------------
|------------------------------|-----------------------|------------------------
|------------------------------|-----------------------|------------------------
|------------------------------|-----------------------|------------------------
|------------------------------|-----------------------|------------------------
                                                                                

                                                                                
1--0--------0h3p0--|------------------------------------------------------------
------3--1---------|------------------------------------------------------------
-------------------|------------------------------------------------------------
-------------------|------------------------------------------------------------
-------------------|------------------------------------------------------------
-------------------|------------------------------------------------------------


Tanto las estrofas como el estribillo hacen la misma progresion F-Bb


F Bb F Bb En la ciudad gris, bares y cafes
F Bb F Bb tenes que olvidar, nena, no podes Era un escritor, se la daba de era un usador, de tu buena fe INTER = INTRO Y justo pense, yo que estaba aca nena donde estes como, como estas Sexy overol en el restoran pero el no te espera el no te espera, y no olvidas Y ves, que esta tristeza no puede ser que algo mejor tiene que haber, algo por donde salir a andar
F Bb Dale, Dolores no llores Dale, Dolores no llores Dale, Dolores no llores, no... (bis)
Dm C6 Uoh, uoh, uoh servido va tu amor (x4) Si viene y entra por esa puerta, ay, yo me muero fantasma o no, vos en el y el en vos y brillo loco en la bandeja estan sus ojos negros pero ya basta, ya basta, sabemos que termino Dale, Dolores no llores Dale, Dolores no llores Dale, Dolores no llores, no... (bis) uoh oh, oh oh oh oh oh, oh oh oh todo pasa..., todo pasa... todo pasa...
Fill 1 C6 |--------1--3--(4)--3--|---0---------------------------------------------------- |---1h3----------------|---1---------------------------------------------------- |----------------------|---2---------------------------------------------------- |----------------------|---2---------------------------------------------------- |----------------------|---3---------------------------------------------------- |----------------------|--------------------------------------------------------
Este fichero es trabajo propio de su transcriptor y representa su interpretación personal de la canción. El material contenido en esta página es
para exclusivo uso privado, por lo que se prohibe su reproducción o retransmisión, así como su uso para fines comerciales.

© LaCuerda.net · Aviso Legal · Privacidad