Acordes de Guitarra » P »los Piojos » Shup - Shup (Tab)

Shup - Shup
los Piojos

Letras, Acordes y Tabs para Guitarra, Bajo y Ukulele

  •     A                 D7
    El tipo dice que es dificil
      A                 D7
    que lo duro va a pasar
        A               D7
    el tipo habla de futuro
      A                       D7
    y no tenes laburo y al lo estan por echar.
    
    El tipo tiene gesto duro
    y bajo el escritorio un perfume singular
    la nena lo hace sin apuro
    y entre una cosa y otra es dificil gobernar
    
    Shup shup shubururu bla bla...
    Shup shup shubururu bla bla...
    Shup shup shubururu bla bla...
    Shup shup shubururu...
    
    Ella habla que le gusta el cine
    
  • E--------------------------------------------------9-9-9--
    B---------------------7*77--------------------------------
    G--2------4--4---22-2-7*77--2--------4--4---22-2--9-9-9---
    D--22234---33-3--2222-------22234-----33-3--2222----------
    A--03045---------0030-------03045-----------0030----------
    E---------------------------------------------------------
    
    La Base Repite el Riff Anterior
    
    El tipo dice que es difícil,
    que lo duro va a pasar
    el tipo habla del futuro
    y no tenés laburo
    y a él lo están por hechar
    
    Base [La5 - Re5]
    
    El tipo tiene gesto duro
    y bajo el escritorio
    un perfume singular
    
  • Debía tocar este tema y como no encontré una tablatura digna en internet
    lo transcribí directamente escuchándolo.
    Aclaro que lo saque como para tocar una viola solamente,
    lo mas fiel posible.
    Espero que les sirva.
    Saludos!
    
    
    INTRO
    
    e|--------------------------------------------------------------------||
    B|----------2-4-2-2-4-2-----------7b8-7b8-----------------------------||
    G|----------0-0-3-3-0-3-----------7b8-7b8-----------------------------||
    D|2-2-2-2-2-------------2-2-2-2-2-------------------------------------||
    A|0-0-4-0-4-------------0-0-0-4-0-------------------------------------||
    E|--------------------------------------------------------------------||
    
    e|-----------------------------------9-9v-----------------------------||
    B|----------2-4-2-2-4-2-----------------------------------------------||
    G|----------0-0-3-3-0-3-----------s9v---------------------------------||
    D|2-2-2-2-2-------------2-2-2-2-2-------------------------------------||
    A|0-0-4-0-4-------------0-0-0-4-0
  • (Intro y 1º verso, solo Guitarra)
    
    2º Verso:
    G|-------------------------------|x4
    D|----------------------7---5----|
    A|-------4-5-7-5--5-7-5---5---5--|
    E|-5-5-7-------------------------|
    
    
    Coro:
    G|--------------------------4-6--|x4
    D|--------------------4-5-7------|
    A|-------4-5-7-5--5-7------------|
    E|-5-5-7-------------------------|
    
    (Puente, y 3º verso en Guitarra)
    
    4º Verso:
    G|-------------------------------|x4
    D|----------------------7---5----|
    A|-------4-5-7-5--5-7-5---5---5--|
    E|-5-5-7-------------------------|
    
    Coro:
    G|--------------------------4-6--|x4
    D|--------------------4-5-7------|
    A|-------4-5-7-5--5-7------------|
    E|-5-5-7-------------------------|
    
    Solo de Guitarra:
    G|-----------------6-7-8-----------------------|x2
    D|------4-5-6-77-9------------6-7-8------6-7-8-|
    A|-55-7------------------77-9-------77-9-------|
    E|---------------------------------------------|
    
    Solo de Harmónica:
    G|-------------------------------|x8
    D|---------
  • Buenas soy Aarón acá les dejo la verdadera armónica
    de este tema bien sacado:
    
    Nota:
    
    -b = bend se realiza moviendo la cavidad de la boca…Para los
     novatos se aspira o sopla pronunciando huahua, uiui, ueue, etc…
    
    -... = nota larga
    
    (?-?) = aspirar dos notas a la vez
    
    * = tremolo, se realiza haciendo sonar dos notas alternadas
    un con otra varias veces.
    
    
    Armónica en D (re):
    
    (4b)...(varia mucho, escuchar los tiempos)
    (3)(4)(5)(4)(4b)(5)(4)(4b)(2-3)3(2b)(2b)
    (3)(4)(5)5(4)(5)5(4-5)*4(2b)
    (3)(4)(5)5(4)(3)(4)(5)5(4b)
    (3)(4)(5)5(4b)(4-5)*(2)(3)(4b)...
    
    (se realiza muy rápido ,la verdad que el Andres Ciro es el
     mejor armonicista de Argentina y America en el Rock!)
    
    
    Aguante "La Novena"(Banda de Rock)
    nos vemos
  • +
    ¡Colabora con nosotros!
    Envíanos tu versión de esta canción
  • Tutorial
    HD
    Explicado - Como tocar "Shup shup" de Los Piojos en el bajo tutorial#254
    9:46

Letra de Shup - Shup
El tipo dice que es dificil
que lo duro va a pasar
el tipo habla de futuro
y no tenes laburo y al lo estan por echar.
El tipo tiene gesto duro
y bajo el escritorio un perfume singular
la nena lo hace sin apuro
y entre una cosa y otra es dificil gobernar
Shup shup shubururu bla bla...
Shup shup shubururu bla bla...
Shup shup shubururu bla bla...
Shup shup shubururu...
Ella habla que le gusta el cine
ella habla que de su casa se va
cada tanto decis : si
te mira, sonrie, fuma y vuelve a hablar.
Ella tiene labios gruesos
y mueve las manos y te toca al pasar
y vos estas pensando sola mente en eso
estas pensando solo en como hacerla callar.
Shup shup shubururu bla bla...
Shup shup shubururu bla bla...
Shup shup shubururu bla bla...
Shup shup shubururu...
Palo duro alcohol,
palo duro rock'n roll
palabras para cambiar la suerte
palo duro amor, palo para penas
palabras que se tiran al oido de una nena.
Palo duro arriba palo duro que se traba
palabras que se mojan
y que en tu boca se clavan
Shup shup shubururu bla bla...
Shup shup shubururu bla bla...
Shup shup shubururu bla bla...
Shup shup shubururu bla bla...
Shup shup shubururu bla bla...
Shup shup shubururu bla bla...
Shup shup shubururu bla bla...
Shup shup shubururu...




[Shup - Shup chords][Shup - Shup cifra]
© LaCuerda.net · aviso legal · privacidad · es · en · pt · contacto
DINAMICO