Letra y Acordes de los Piojos: Todo Pasa
Conexión · Inscripción
Letras y Acordes
Pantalla Completa
Imprimir
Versión Texto
Añadir Favorito
Otras Versiones

Mostrar Diagramas
Desfile Automático
Manipular Acordes
Formato del Texto


Todo Pasa

los Piojos

calidad:
pioj0392
AUTOR: Chuck Berry, Carl Perkins
ALBUM: 3er Arco
Enviado por Juan
Nota: El parentesis en ciertos acordes,
por ejemplo, G#m(A#), indica que es un G#m con bajo en A#.

Intro

|--1--0--3--5--5--5--5--3--5--------|
|-----------------------------------|
|-----------------------------------|
|-----------------------------------|
|--------------------------1--------|
|--1--1--1--1--1--1--1--1-----------| x 2

Punteo

|-----1-----1--0----------0--0--------|
|-------------------3-----------3--1--|
|--2----2-----------------------------|
|-------------------------------------|
|-------------------1----1------------|
|--1----1-----------------------------|


|------1----1---0-----------3p0----------|
|--------------------3---1-------3--1----|
|---2-----2----------------------------3-|
|----------------------------------------|
|--------------------1---1---------------|
|---1-----1------------------------------|


(Punteo, en toda la estrofa)
F C Bb En la ciudad gris,
F C Bb bares y cafes
F C Bb Tenes que olvidar,
F C Bb nena no podes
F C Bb Era un escritor,
F C Bb se la daba de
F C Bb Era un usador,
F C Bb de tu buena fe Intro
F C Bb Y justo pense, (pense por pensar)
F C Bb yo que estaba acà
F C Bb Nena donde estes
F C Bb Como? como estas? (Punteo, en toda la estrofa)
F C Bb Sexy overol,
F C Bb en el restoran
F C Bb Pero el no te espera
F C Bb El no te espera y no olvidas
F C Bb Y ves
F C Bb que esta tristeza no puede ser
F C Bb Que algo mejor tiene que haber
F C Bb Algo por donde salir a andar
F C Bb Dale, do-lores no llores
F C Bb Dale, do-lores no llores
F C Bb Dale, do-lores no llores
F C Bb No... x2
G#m G#m(A#) G#m(B) G#m(A#) Servido
D#m va tu amor
C#m C#m(D#) C#m C#m(D#) Oha, oha, oha, Servido
D#m va tu amor
G#m G#m(A#) G#m(B) G#m(A#) Oha, oha, oha Servido
D#m va tu amor
C#m C#m(D#) C#m C#m(D#) Oha, oha, oha, Servido
F C Bb va...
F C Bb (Percusion) Si viene y entra por esa puerta hay, yo me muero Fantasma o no Vos en el y el en vos (Punteo, en toda la estrofa)
F C Bb Y brillo loco en la bandeja están
F C Bb sus ojos negros
F C Bb pero ya basta! ya basta!
F C Bb sabemos que termino
F C Bb Dale, do-lores no llores
F C Bb Dale, do-lores no llores
F C Bb Dale, do-lores no llores
F C Bb No... x2
F C Bb Todo pasa,
F C Bb todo pasa
F C Bb Todo pasa,
F C Bb todo pasa
Este fichero es trabajo propio de su transcriptor y representa su interpretación personal de la canción. El material contenido en esta página es
para exclusivo uso privado, por lo que se prohibe su reproducción o retransmisión, así como su uso para fines comerciales.

© LaCuerda.net · Aviso Legal · Privacidad