Tablatura para Bajo de los Piojos: Te diría
Conexión · Inscripción
Letras y Acordes
Pantalla Completa
Imprimir
Versión Texto
Añadir Favorito
Otras Versiones

Mostrar Diagramas
Desfile Automático
Formato del Texto


Te diría(BAJ)

los Piojos

calidad:
pioj0383
AUTOR: Andrés Ciro Martínez
ALBUM: Ay ay ay
Enviado por Federico
Entrada e interludios
G|------------------------------| x4
D|------------------------------|
A|---4--4--4-5-4----------------|
E|---------------3--3-3-3-3-3-3-|
	
G|---------------|
D|---------------|
A|-2-4-4-5-4-5-4-|
E|---------------|

Estrofas
G|----------------| x4
D|----------------|
A|----------------|
E|-3(X16)-1 (X16)-|


G|---------------|
D|---------------|
A|--------3(x32)-|
E|-1(x24)--------|


Hace todo el tema en base a esto, cambiando unicamente
en el corte que hacen dos veces y es así:

G|-----------------|
D|-----------------|
A|-----------------|
E|-1--1--1--1--1-2-|    Y de acá sale a la base de la estrofa
Este fichero es trabajo propio de su transcriptor y representa su interpretación personal de la canción. El material contenido en esta página es
para exclusivo uso privado, por lo que se prohibe su reproducción o retransmisión, así como su uso para fines comerciales.

© LaCuerda.net · Aviso Legal · Privacidad