Acordes de Guitarra » P »los Piojos » Maradó (Tab)

Maradó
los Piojos

Letras, Acordes y Tabs para Guitarra, Bajo y Ukulele

  • A                    Cm
    Cae del cielo brillante balón,
    A                       Gm
    Toda la gente y todo el mundo ve,
    A                 Cm
    Una revancha redonda en su pie,
    A                       Gm
    Todo el país con el corriendo va,
    A                       Cm
    Caen las tropas de su majestad,
    A                      Gm
    Y cae el norte de la Italia rica,
    A                       Cm
    Y el papa dando vueltas no se explica,
    A                     Gm
    Muerde la lengua de Joao Havelange
    
    
        A5          Cm      A5       Gm
    Maradó, Maradó....Maradó,Maradó    (repite)
    
  •     A               Bb               A               Cm
    E|-------------------------------------------------------------|
    B|---------------------------------------------------4-----8---|
    G|------5/4/5/7/8---7----------------------5-5-5-4-5-------7---|
    D|----7------------------8---7-------------7-7-7-6-7-----------|
    A|-------------------------8---8-----------6-6-6-5-6-----------|
    E|-5------------------------------6--5-------------------------|
    
    
    
    A                    Bb
    Cae del cielo brillante balón,
    A                       Cm
    Toda la gente y todo el mundo ve,
    A                 Bb
    Una revancha redonda en su pie,
    A                       Cm
    Todo el país con el corriendo va,
    A                       Bb
    Caen las tropas de su majestad,
    
  •     A                Bb                    A         Cm
    E|---------------------------------------------------------5----|
    B|---------------------------------------------------------5----|
    G|------5/4/5/7/8----7----------------------6-6-6-6-6-6/7-------|
    D|-5/7--------------------------8-----------7-7-7-7-7-7/8-------|
    A|-----------------------8--10----10--8--5--7-7-7-7-7-7/8-------|
    E|--------------------------------------------------------------|
    
    
    
    A                    Bb
    Cae del cielo brillante balón,
    A                       Cm
    Toda la gente y todo el mundo ve,
    A                 Bb
    Una revancha redonda en su pie,
    A                       Cm
    Todo el país con el corriendo va,
    A                       Bb
    Caen las tropas de su majestad,
    
  • Intro
    G|--------|x4
    D|--------|
    A|--------|
    E|-5(x24)-|
    
    Verso
    G|------------------|x8
    D|------------------|
    A|--------1/3\1/3\1-|
    E|-5(x16)-----------|
    
    Coro
    G|---------------------|x4
    D|---------------------|
    A|---------1-3-1-------|
    E|-5555555-------3-1-3-|
    
    Intro
    G|--------|x4
    D|--------|
    A|--------|
    E|-5(x24)-|
    
    Verso
    G|------------------|x8
    D|------------------|
    A|--------1/3\1/3\1-|
    E|-5(x16)-----------|
    
    Coro
    G|---------------------|x4
    D|---------------------|
    A|---------1-3-1-------|
    E|-5555555-------3-1-3-|
    
    Puente
    G|---------------------------|
    D|---------------------------|
    A|-(7)--(3)--(7)--(3)----(7)-|
    E|---------------------------|
    
    Intro
    G|--------|x4
    D|--------|
    A|--------|
    E|-5(x24)-|
    
    Verso
    G|------------------|x8
    D|------------------|
    A|--------1/3\1/3\1-|
    E|-5(x16)-----------|
    
    Coro
    G|---------------------|x4
    D|---------------------|
    A|---------1-3-1-------|
    E|-5555555-------3-1-3-|
    
    Puente
    G|------------
  • +
    ¡Colabora con nosotros!
    Envíanos tu versión de esta canción
  • Tutorial
    Como tocar Maradona - Andres Calamaro (Acordes Tutorial Guitarra)
    3:55

Letra de Maradó
Cae del cielo brillante balón,
Toda la gente y todo el mundo ve,
Una revancha redonda en su pie,
Todo el país con el corriendo va,
Caen las tropas de su majestad,
Y cae el norte de la Italia rica,
Y el papa dando vueltas no se explica,
Muerde la lengua de Joao Havelange
Maradó, Maradó....Maradó,Maradó (repite)
Rinoscopia embiste a cualquier
A cualquier quia del poder letal
Rinoscopia cuerno de marfil
Filoplatino para reventar
Y la champaña que descorchan hoy
Guarden los corchos para un bote hacer
Que viene el río del hambre y la sed
Y ya no hay goles que den de morfar
Maradó, Maradó....
Cuando se caigan a pedazos las paredes
De esta gran ciudad
Cuando no queden en el aire mas cenizas
De lo que será, que sea...
Y sigue el Diego, el mejor en lo suyo
Si vos los fueras no habría tanto yuyo
Y va el cafiolo por el tobogán
Va para arriba va riendo, ja!
Y viaja afuera alfombra mágica
Alfombra va privada mil millón
Todos se empilchan para la ocasión
Y esperan alguna miga...ja!
Cuando se caigan a pedazos.....
bueno suerte!




[Maradó chords][Maradó cifra]
© LaCuerda.net · aviso legal · privacidad · es · en · pt · contacto
DINAMICO