Tablatura para Bajo de Pescado Rabioso: Despiertate nena
Conexión · Inscripción
Letras y Acordes
Pantalla Completa
Imprimir
Versión Texto
Añadir Favorito
Otras Versiones

Mostrar Diagramas
Desfile Automático
Formato del Texto


Despiertate nena(BAJ)

Pescado Rabioso

calidad:
prab0132
AUTOR: Luis A. Spinetta - Amaya
ALBUM: desconocido
Enviado por martin, basado en Santiago
Riff en E
1/--------------------------------------------------------
2/--------------------------------------------------------
3/----------7---------------------------------------------
4/--0-----------0-3-5-------------------------------------

Riff en A
1/--------------------------------------------------------
2/----------7----------------------------------------------
3/--0------------0-3-5------------------------------------------
4/--------------------------------------------------------

y asi veras...
1/--------------------------------------------------------
2/--------------------------------------------------------
3/--2-22-22-22-3-33-5-55----------------------------------
4/--------------------------------------------------------


es mi primer tab asi que concideracion por favor espero que les sirva!
Este fichero es trabajo propio de su transcriptor y representa su interpretación personal de la canción. El material contenido en esta página es
para exclusivo uso privado, por lo que se prohibe su reproducción o retransmisión, así como su uso para fines comerciales.

© LaCuerda.net · Aviso Legal · Privacidad