Acordes de Guitarra » P »Pescado Rabioso » Cantata de puentes amarillos (Tab)

Cantata de puentes amarillos
Pescado Rabioso

Letras, Acordes y Tabs para Guitarra, Bajo y Ukulele

  • ---www.spinettachords.com.ar---
    
    Para una mejor comprensión de la transcripción
    y las múltiples inversiones de acordes,
    la canción está dividida en varias partes.
    
    Acordes:
    
    Parte A:
    A: x02220
    D/A: x00232
    E5: x799xx
    D5: x577xx
    C5: x355xx
    Bsus2/F#: x24422
    Bbsus2/F: x13311
    A6: x0465x
    A6sus4: x0475x
    D7: xx0212
    D7sus4: xx0213
    
  • e-------------------     ------------------/
    b-------------------     ------------------/
    g-------------------  X3 ------------------/
    d-------------------     ------------------/
    a------------9-11-9-     ---12-11-9--12-11-/
    E----9-10-12--------     ------------------/
    
    -------------------/      ------------------/
    -------------------/      ------------------/
    -------------------/   X3 ------------------/
    -----------9-11-9v-/      ---12-11-9--12-11v/
    ---9-11-12---------/      ------------------/
    -------------------/      ------------------/
    
    --------------------9---/      ------------------9----
    --------------10h9v-(9)-/      ---10h9-----------10---
    ---------9-11-----------/   X3 --------11h9------11---
    ---11-12----------------/      -------------12v--12---
    ------------------------/      -----------------------
    ------------------------/      -----------------------
    
  • e|-----------------------------------------------------------------|
    B|-----------------------------------------------------------------|
    G|-----------------------------------------------------------------|
    D|-----------------------------------------------------------------|
    A|---------9h10-9----------9h10-9-----------9h10-9-12-11-9-12-11---|
    E|-9-10-12---------9-10-12----------9-10-12------------------------|
    
    e|-----------------------------------------------------------------|
    B|-----------------------------------------------------------------|
    G|-----------------------------------------------------------------|
    D|----------9h11-9----------9h11-9----------9h11-9-12-11-9-12-11---|
    A|-9-11-12--------9-11-12----------9-11-12-------------------------|
    E|-----------------------------------------------------------------|
    
    e|------------------9----------------------9-------------------9---|
    B|-------------10-9-------------------10-9----------------10-9-----|
    G|--------9-11-------------------9-11----------------9-11----------|
    D|-11-12-----------------11-12----------------11-12----------------|
    A|-----------------------------------------------------------------|
    E|-----------------------------------------------------------------|
    
  • +
    ¡Colabora con nosotros!
    Envíanos tu versión de esta canción

Letra de Cantata de puentes amarillos
Para una mejor comprensión de la transcripción
y las múltiples inversiones de acordes,
la canción está dividida en varias partes.
Acordes:
Parte A:
Parte B:
Parte C:
Parte D:
Todo camino puede andar
Todo puede andar
Parte A:
Estrofa:
a|-0--0-0-0-0--0--0--7|
(sobre A6-A6sus4)
Con esta sangre alrededor
no sé que puedo yo mirar
(sobre D7-D7sus4)
la sangre ríe idiota
como esta canción
¿y ante quién?
Verso:
Ensucien sus manos como siempre
Relojes se pudren en sus mentes ya
Y en el mar
Nau fra gó
U - na balsa que nunca zarpó
Mar am quí
Estrofa:
(igual)
En un momento vas a ver
que ya es la hora de volver
pero trayendo a casa todo aquél fulgor
¿y para quién?
Verso:
(igual)
Las almas repudian todo encierro
las cruces dejaron de llover
Parte B:
Estrofa:
sube al taxi, nena
los hombres te miran
te quieren tomar
ojo el ramo, nena
las flores se caen
tenés que parar
Verso:
Ví las sonrisas muriendo en el carrousell
Vi tantos monos, nidos, platos de café
platos de café ahhh
Guitarra acústica:
Guitarra eléctrica:
Estrofa:
(igual)
Guarda el hilo, nena
guarden bien tus manos
esta libertad
ya no poses, nena
todo eso es en vano
como no dormir
Verso:
(igual)
Aunque me fuercen yo nunca voy a decir
que todo tiempo por pasado fue mejor
mañana es mejor
C#7(#9) F#m
ahh ahhh
D7(#9) G#m - E7(#9) - F#7(#9)/C# F#7(#9)
Parte C:
Intermedio:
Ahhhh ah ah ah ah ah ah ah ahhhh ah ah ah ah ah ah ah ah [x2]
Ahhhh ah ah ah ah ah ah ah ahhhh ah ah ah ah ah ah ah ah [x2]
Ahhh bam bam bam
Estrofa:
Aquellas sombras del camino azul, ¿dónde están?
Yo las comparo con cipreses que ví solo en sueños
y las muñecas tan sangrantes están de llorar
Verso:
yo te amo tanto que
no puedo despertarme sin amar
y te amo tanto que
no puedo despertarme sin amar
y te amo tanto que
no puedo despertarme sin amar
Repite intermedio:
Ahhhh ah ah ah ah ah ah ah ahhhh ah ah ah ah ah ah ah ah [x2]
Ahhhh ah ah ah ah ah ah ah ahhhh ah ah ah ah ah ah ah ah [x2]
Ahhh bam bam bam bam
Parte D:
Riff:
Baug(b9) Csus2(#11)
Baug(b9) Csus2(#11)
¡No! puentes amarillos,
Mira el pájaro se muere en su jaula
Repite riff
Baug(b9) Csus2(#11)
Baug(b9) Csus2(#11)
¡No! puentes amarillos,
Mira el pájaro se muere en su jaula
Bbmaj7(b5)
hoy
te amo ya
y ya es mañanaaaaa
(sobre riff)
Mañana mañana
Mañana mañana




[Cantata de puentes amarillos chords][Cantata de puentes amarillos cifra]
© LaCuerda.net · aviso legal · privacidad · es · en · pt · contacto