Acordes de Guitarra » P »Las Pelotas » Tormenta de jupiter (Tab)

Tormenta de jupiter
Las Pelotas

Letras, Acordes y Tabs para Guitarra, Bajo y Ukulele

  • LAm
    calla, rie conmigo
    FA
    sobre la colina vieja
    LA                 FA
    esto no lo olvidaras...
    LAm
    sueña, mira, es la luna
    FA
    todo esto es un sueño
    LAm                 FA
    nunca mas podras salir...
    LAm      FA      LAm      FA
    besos.....         besos.....
    
                    LAm                          FA
                    cuando termina el mes de abril
                                      MIm
                    casi como un misterio                     
                                          SOL
    
  • A5
    calla, rie conmigo
    F5
    sobre la colina vieja
    A5                F5
    esto no lo olvidaras...
    A5
    sueña, mira, es la luna
    F5
    todo esto es un sueño
    A5                 F5
    nunca mas podras salir...
    A5      F5       A5    F5
    besos.....         besos.....
    
                    A5                          F5
                    cuando termina el mes de abril
                                      Em
                    casi como un misterio
                                          G5
    
  •              A5                                F5
    1|------------------------------    -----------------------------
    2|------------------------------    -------1----------1----------
    3|--------5-2-------------5-2---    --------2----------2---------
    4|--2--------------2------------    --3-----------3--------------
    5|--0--------------0------------    --3-----------3--------------
    6|------------------------------    --1-----------1--------------
    
    Em (rasgido de Em tambien en forma de
    en forma de rock and roll)                      G5
    --------------------------------    -----------------------------
    --------------------------------    -----------------------------
    --------------------------------    -----------------------------
    --2-----------------------------    -----------------------------
    --2-----------------------------    --5-5-7----------------------
    --0-----------------------------    --3-3-3----------------------
    
    
                       REPITE EL INTRO UNA VEZ
    
    
  • +
    ¡Colabora con nosotros!
    Envíanos tu versión de esta canción

Letra de Tormenta de jupiter
calla, rie conmigo
sobre la colina vieja
esto no lo olvidaras...
sueña, mira, es la luna
todo esto es un sueño
nunca mas podras salir...
besos..... besos.....
cuando termina el mes de abril
casi como un misterio
todo comienza sin querer
llenas hasta el vacio
no puedo para tu mente
la salilda va a a venir
si paso... es lo mejor
cuando termina el mes de abril
casi como un misterio
todo comienza sin querer....
bueno, espero que les guste, tengo algunas dudas con la parte de (besos... )
perp el tema suena bien, pueden probar con SIm y SOL
cualquier duda escribir a enanash@hotmail.com
aguante chacabuco y chacarita....




[Tormenta de jupiter chords][Tormenta de jupiter cifra]
© LaCuerda.net · aviso legal · privacidad · es · en · pt · contacto