Acordes de Guitarra » P »Las Pelotas » Que podes dar (Tab)

Que podes dar
Las Pelotas

Letras, Acordes y Tabs para Guitarra, Bajo y Ukulele

  • G-D-G-D
    
    
             G
    De dónde sos
                D
    Que dan por vos
                       G
    Siempre creerse un as
              D
    Sólo lo mejor
    
    
              G
    Que podés dar
              D
    Realmente dar
                       G
    Que esté en tú corazón
                  D
    
  •              C5  B5   E5   D5   C5  D5  G5
    e|--------------------------------------------
    B|----------8p7p5-----------------------------
    G|----------------7----7---9----9s7-----------
    D|-------------------9-------7-------9s5-5----
    A|--------------------------------------------
    E|--------------------------------------------
    
                 C5  B5   E5   D5   C5  B5  C5-D5
    e|-----------------------------------------------------------
    B|----------8p7p5--------------8p7---5s7--7v---7v---7v---7v--
    G|----------------7----7---9-------9-------------------------
    D|-------------------9-------7-------------------------------
    A|-----------------------------------------------------------
    E|-----------------------------------------------------------
    
    
    
    
    
    
  • Intro
    
    G|---------------
    D|---------------
    A|-5-5-5-5-5-5...
    E|---------------
    
    Verso
    
    G|-------------
    D|-------------
    A|-------------
    E|-3-3-3-3-3...
    
    G|---------------
    D|---------------
    A|-5-5-5-5-5-5...
    E|---------------
    
    Coro
    G|----------------------------------------------------------------
    D|----------------------------------------------------------------
    A|-------------5-5-7-7-9-9-10-10----------5-5-5-5-5-5--3-3-3-3-3--
    E|-5-5-5-5-5-5-------------------5-5-5-5-5------------------------
    
    G|-------------------------------------------
    D|-------------------------------------------
    A|-5-5-7-7-9-9-10-10-------------5-5-5-5-5...
    E|-------------------5-5-5-5-5-5-------------
    
    Termina el coro y hace la intro devuelta,
    se repite verso y coro de nuevo.
    
    Parte Final
    
    G|------------------------------
    D|------------------------------
    A|-3-3-2-2--3-3-2-2-3-3---------
    E|----------------------33333...
    
    G|------------------------------
    D|------------------------------
    A|-3-3-2-2--3-3-2-2-3-3/5555
  • +
    ¡Colabora con nosotros!
    Envíanos tu versión de esta canción

Letra de Que podes dar
De dónde sos
Que dan por vos
Siempre creerse un as
Sólo lo mejor
Que podés dar
Realmente dar
Que esté en tú corazón
Y no en aparentar
Ahh, ahh, ahhahhah
Siento ganas
De salir sin ver más
Tanta gente y el desierto
Resulta que otro día más
Rompiendo todo y olvidando
A dónde vas
Cómo es que irás
Cuánto por saber
Sólo figurar
Cuál es tú verdad
Que está en tú corazón
Y no haya que comprar
Ahh, ahh, ahhahhah
Siento ganas
De salir sin ver más
Tanta gente y el desierto
Resulta que otro día más
Rompiendo todo y olvidando




[Que podes dar chords][Que podes dar cifra]
© LaCuerda.net · aviso legal · privacidad · es · en · pt · contacto
DINAMICO