Acordes de Guitarra » P »Las Pelotas » Eso que pasó (Tab)

Eso que pasó
Las Pelotas

  • Tablatura
                    LA
    
    e-------0-----------0------------0------------0--------
    b----------2-2---------2-2----------2-2----------2-2---
    g-----2-----2-----2-----2------2-----2------2-----2----
    d------------------------------------------------------
    a---0-----------0-----------0------------0-------------
    E------------------------------------------------------
    
                   MI
    
    e-------0-----------0-----------0-----------0---------
    b----------0-0---------0-0---------0-0---------0-0----
    g-----1-----1-----1-----1-----1-----1-----1-----1-----
    d-----------------------------------------------------
    a-----------------------------------------------------
    E---0-----------0-----------0-----------0-------------
    
    
                   RE
    
  • +
    ¡Colabora con nosotros!
    Envíanos tu versión de esta canción

Letra de Eso que pasó
Los arpegios continuan asi, hasta que cambian de acorde..
Eso que pasó, se convirtió en el mismo cerco
pese a empujar nunca cayó
no llegó al suelo
Uno no es el centro,
uno no es el centro…
Si no aceptas la realidad te comerá el cuerpo
más que que resistir,
podés sentir que sos parte del juego
Uno no es el centro,
uno no es el centro…
Gotas se deslizan por la almohada azul
avisan que pronto se secarán
Eso que pasó, se convirtió en el mismo cerco
pese a empujar nunca cayó
no llegó al suelo
Uno no es el centro,
uno no es el centro…
Gotas se deslizan por la almohada azul
lejos de doler se entienden mejor
hay cosas que nunca te llenarán…
Soy daniel de Pto madryn...Y queria dedicarle esta cancion a mi tio
que me debe estar viendo "Cerca de las nubes"...
Esta es la 2da colaboracion que hago para lacuerda.net, espero que les guste...
Cualquier consulta mi mail es dany_rnr25@hotmail.com.ar



© LaCuerda.net · aviso legal · privacidad · contacto
DINAMICO