Acordes de Guitarra » P »Las Pelotas » Corderos en la noche (Tab)

Corderos en la noche
Las Pelotas

Letras, Acordes y Tabs para Guitarra, Bajo y Ukulele

  • Intro: E F# - A B
    
    E  F#  A  B
    Tratanos
    E  F#    A  B
    como si fueras pastor,
    E  F#  A  B
    llevanos
    E   F#   A   B
    a donde no haya dolor,
    E  F#   A   B
    porque allá
    E   F#     A  B
    nos tratan de dispersar
    E   F#   A   B
    y hay más,
    E  F#    A   B
    tratalo de imaginar.
    
    E   F#  A    B
    
  • FA# - LA - SI - LA
    |--2-22----55---7--7---5--|
    |--2-22----55---7--7---5--|
    |--3-33----66---8--8---6--|
    |--4-44----77---9--9---7--|
    |--4-44----77---9--9---7--|
    |--2-22----55---7--7---5--|
    
     Puente 1: (1:15)
     FA# - SI
    |--2--22-22-------7-777--|
    |--2--22-22-------7-777--|
    |--3--33-33-------8-888--|
    |--4--44-44-------9-999--|(x4)
    |--4--44-44-------9-999--|
    |--2--22-22-------7-777--|
    
    
    Guitarra 2:
    |-----------------------|
    
  • +
    ¡Colabora con nosotros!
    Envíanos tu versión de esta canción

Letra de Corderos en la noche
Tratanos
como si fueras pastor,
llevanos
a donde no haya dolor,
porque allá
nos tratan de dispersar
y hay más,
tratalo de imaginar.
Llevame a la mejor estación,
Llevame a la mejor estación...
OBEJAS!!!!!!!!
Recuerden E siempre es corchea, al igual que A y F# y B
son negras. Menos cuando es la parte en que dice obejas
que son redondas.
cualquier duda consulten a fric13@hotmail.com




[Corderos en la noche chords][Corderos en la noche cifra]
© LaCuerda.net · aviso legal · privacidad · es · en · pt · contacto
DINAMICO