Acordes de Guitarra » P »Pedro Infante » Tu enamorado (Tab)

Tu enamorado
Pedro Infante

Letras, Acordes y Tabs para Guitarra, Bajo y Ukulele

  • LA
    Ya llegó tu enamorado
    SIm
    al que nunca correspondes
    MI
    ya llegó hasta la ventana
    
    desde donde tú lo escuchas
                       LA
    pero donde tú te escondes
    
    
    Ya no sé ni que decirte
    SIm
    ya ni tengo que cantarte
    MI
    yo quisiera maldecirte
    
    pero ya estoy convencido
                     LA
    
  •                    A                     E
    e|-------------------9-8---------------------------------------
    b|------9-8-9-8-9-11---------9-9-9----9-8-------8---8-6---6----
    G|--8-8--------------------8-------10------6------8-----6---8--
    D|-------------------------------------------------------------
    A|-------------------------------------------------------------
    E|-------------------------------------------------------------
                       A
    e|-------------------------------------------------------------
    b|-----6-6-----------------------------------------------------
    G|---------8---------------------------------------------------
    D|-8-8---------8-65-------------------------------------------- 2 veces
    A|------------------6------------------------------------------
    E|-------------------------------------------------------------
    
    
    A
    Ya llegó tu enamorado
    Bm
    Al que nunca correspondes
    
  • +
    ¡Colabora con nosotros!
    Envíanos tu versión de esta canción

Letra de Tu enamorado
Ya llegó tu enamorado
al que nunca correspondes
ya llegó hasta la ventana
desde donde tú lo escuchas
pero donde tú te escondes
Ya no sé ni que decirte
ya ni tengo que cantarte
yo quisiera maldecirte
pero ya estoy convencido
que nací para adorarte
Ay ay ay ay ay - ay ay ay
la suerte me está fallando
ay ay ay ay ay corazón
la vida me estás cambiando
Ya llegó tu enamorado
el que te interrumpe el sueño
ese pobre desgraciado
que anda siempre desvelado
porque quiere ser tu dueño
Alguien me contó tu vida
supe de tus ilusiones
yo no sé si me equivoque
pero casi estoy seguro
que te gustan mis canciones
Ay ay ay ay ay - ay ay ay
la suerte me está fallando
ay ay ay ay ay corazón
la vida me estás cambiando
Ya se va tu enamorado
ya se va de tu ventana
ya ni debo despedirme
porque sé que aunque no quiera
voy a regresar mañana
Mientras la pasión me dure
y tu voluntad me aguante
no habrá noche de tu vida
que no vengan mis mariachis
y mi voz a despertarte
Ay ay ay ay ay - ay ay ay
la suerte me está fallando
ay ay ay ay ay corazón
la vida me estás cambiando
Ya se va tu enamorado




[Tu enamorado chords][Tu enamorado cifra]
© LaCuerda.net · aviso legal · privacidad · es · en · pt · contacto