Acordes de Guitarra » P »Pedro Infante » Cien años (Tab)

Cien años
Pedro Infante

Letras, Acordes y Tabs para Guitarra, Bajo y Ukulele

  •      G                    C                             G
    e|---3-3--3-3--3-3--3-1-0-0-|-2-0---------------------|-3-|
    B|---3-3--3-3--3-3--3-----1-|-----3-2-0---------------|-3-|
    C|-4------------------------|-----------2-0-----------|-4-|
    D|--------------------------|---------------0/2-0--0--|-5-|
    A|------------------------3-|---------------------3---|-5-|
    E|--------------------------|-------------------------|-3-|
    
       G         Am   D7  
    Pasaste a mi lado
                   Bm7 
    con gran indiferencia
                    Am
    tus ojos ni siquiera
        D7           G
    voltearon hacia mí.
                      Am    D7
    Te vi sin que me vieras
                         Bm7
    te hablé sin que me oyeras
    
  • A7       Bm        E
    Pasaste a mi lado
             A          Bm C#m
    con gran indiferencia
      Cm          Bm         E
    tus ojos ni siquiera
                    A
    voltearon hacia mi.
    
    A7                 Bm       E
    Te vi sin que me vieras
             A          Bm C#m
    te hable sin que me oyeras
    Cm          Bm         E
    y toda mi amargura
                       A
    se ahogo dentro de mi.
    
      Em    A7          D
    Me duele hasta la vida
    
  • Intro: A   F   A   F   A
    
                  Bm7
    Pasaste a mi lado
                     Amaj7
    con gran indiferencia
                     Bm7
    tus ojos ni siquiera
                    Amaj7
    voltearon hacia mí.
    
                       Bm7
    Te vi sin que me vieras
                          Amaj7
    te hablé sin que me oyeras
                  Bm7
    y toda mi amargura
           E7          A
    se ahogó dentro de mí.
    
    
  • Intro:  A F A Amaj7
    
    Verso 1:
                  Bm7    E9
    Pasaste a mi lado
                   Amaj7 Bm7 C#m7
    con gran indiferen…….cia
        Cm7        Bm7      E9
    tus ojos ni siquiera
                    Amaj7
    voltearon hacia mi.
    
                     Bm7       E9
    Te vi sin que me vieras
                        Amaj7   Bm C#m
    te hable sin que me oyeras
      Cm          Bm
    y toda mi amargura
         E9            Amaj7
    se ahogo dentro de mi.
    
  • -------------------------
    
    (SOLO)
    
    |----------------------------------------10-8---------------------------|
    |----12-12--12-12--12-12--12-11-10-9-8--------11-10-8-------------------|
    |-----------------------------------------------------10-8-8/10-10-8-7--|
    |--9--------------------------------------------------------------------|
    |-----------------------------------------------------------------------|
    |-----------------------------------------------------------------------|
    
    (X2)
    
                 Am D7
    Pasaste a mi lado
                 Bm Bm7
    Con gran indiferencia
                   Am
    Tus ojos ni siquiera
        D7          G
    
  •           G*                   Am                   D7
    e|---------0-0-------|---------5--5-------|---------5--5-------|
    B|---------0-0-------|---------5--5-------|---------7--7-------|
    G|-------4-----------|-------6------------|-------5------------|
    D|-----5---------5---|-----7----------7---|-----7----------7---|
    A|---5---------------|---7----------------|---5----------------|
    E|-3---------------3-|-5------------------|-5----------------5-|
    
              G*                   Am                   D7
    e|---------0--0-------|---------5--5------|---------5--5-------|
    B|---------0--0-------|---------5--5------|---------7--7-------|
    G|-------4------------|-------6-----------|-------5------------|
    D|-----5----------5---|-----7----------7--|-----7----------7---|
    A|---5----------------|---7---------------|---5----------------|
    E|-3----------------3-|-5-----------------|-5----------------5-|
    
    
               G**
    e|-----------0-------0--|
    B|---------0---0-----0--|
    
  • Introducción:
    (Se toca 2 veces)
                            G
    Re Si Si Si Si Si Si Si Si La Sol Re
    
    C                      G
    Si Si La Sol Sol Fa Fa Mi Mi Re
    
    -------------------------------------------
         G                 Am       D7
    Pa--sas--te   a   mi   la--do
    Re   Si  La  Sol  La   Si  Si
    
                             Bm7
    con   gran   in--di--fe--ren--cia
    Si     La   Sol Fa#  Sol  La   La
    
                             Am
    tus   o--jos   ni   si--quie--ra
    La   Sol  Fa#  Mi   Fa#  Sol  Sol
    
          D7                  G
    Vol--tea--ron   ha--cia   mí.
    Sol  Fa#   Mi   Re  Re    Fa#
    
    -------------------------------------------
                                Am         D7
    Te   vi.   sin   que   me   vie--ras
    Re   Si    La    Sol   La    Si   Si
    
                                     Bm7
    te__ha--blé   sin   que   me__o--ye--ras
      Si     La   Sol   Fa#    Sol   La   La
    
                              Am
    y   to--da   mi___a--mar--gu--ra
    La  Sol Fa#     Mi   Fa#  Sol Sol
    
             D7                    G
    se__aho--
  • +
    ¡Colabora con nosotros!
    Envíanos tu versión de esta canción

Letra de Cien años
Pasaste a mi lado
con gran indiferencia
tus ojos ni siquiera
voltearon hacia mí.
Te vi sin que me vieras
te hablé sin que me oyeras
y toda mi amargura
se ahogó dentro de mí.
Me duele hasta la vida
saber que me olvidaste
pensar que ni desprecios
merezca yo de ti.
Y sin embargo sigues
unida a mi existencia
y si vivo cien años
cien años pienso en ti.
(se repite todo)




[Cien años chords][Cien años cifra]
© LaCuerda.net · aviso legal · privacidad · es · en · pt · contacto