Acordes de Guitarra » P »Pedro Infante » Amorcito corazón (Tab)

Amorcito corazón
Pedro Infante

Letras, Acordes y Tabs para Guitarra, Bajo y Ukulele

  • Intro: G Fdim D C-B7  Em A7 D
    
    
         A7       D
    Amorcito Corazón
        Em         F#m Bm      Em    A7
    yo tengo tentación   de un beso
                          Em
    que se prenda en el calor
                     A7        D
    de nuestro gran amor, mi amor.
    
               D    Em
    Yo quiero ser
            F#m  Bm         Em    A7
    un solo ser  y estár contigo
               Em
    te quiero ver
              A7         F#m Bm Em A7
    en el querer, para soñar.
    
  •               E
    Amorcito corazón
    F#m   G#m      Gm        F#m  B7
    yo tengo tentación de un beso
            F#m               C B7
    que se prenda en el calor
                               E C#m F#m7 B7
    de nuestro gran amor, mi amor.
    
    
               E
    Yo quiero ser
    F#m   G#m      Gm      F#m  B7
    un sólo ser, un ser contigo
              F#m          B7
    te quiero ver en el querer
            E C#m F#m7 B7
    para soñar.
    
    
    
  •       Bbmaj7 Cm7
    Amorcito corazón
       Dm7        Bbdim      Cmm   F7
    yo tengo tentación de un beso
           Cm7
    que se prenda en el calor
       F7                   Dm7-Dbm7-Cm7 F7
    de nuestro gran amor mi amor
    
              Bbmaj7 Cm7       Dm7    Bbdim Cm7   F7
    Yo quiero ser      un solo ser un ser contigo
              Cm7       F7         Dm7-Dbm7-Cm7
    te quiero ver en el querer para soñar
     F7   Bbmaj7      Cm7        Dm7       Bbdim
    En la dulce sensación de un beso mordelon
       Cm7   F7
    quisiera
    Cm           F7                         G7
    amorcito corazón decirte mi pasión por ti
           Cm                   Ebm
    
  •       D
    Amorcito corazón
                              A7
    yo tengo tentación de un beso
    
    que se prenda en el calor
                              D
    de nuestro gran amor mi amor
    
     D                                   A7
    Yo quiero ser un solo ser un ser contigo
                                   D     A7
    te quiero ver en el querer para soñar
           D                                     A7
    En la dulce sensación de un beso mordelon quisiera
                                           B7
    amorcito corazón decirte mi pasión por ti
           Em                   Gm
    compañeros en el bien y el mal
           D                  B7
    
  • E----------------------------------------
    D----------------------------------------
    A----------------------------------------
    G----------------------6-5-7/9-7-9/11-3--
    B---------6-5-8----6-5-------------------
    E-6-5-6-5--------------------------------
    
    E-----------------------------------------
    D-----------------------------------------
    A-----------------------------------------
    G----------------------6-5-7/9------------
    B---------6-5-8----6-5---------9/11-------
    E-6-5-6-5---------------------------------
    
    E------------------------------------------
    D------------------------------------------
    A------------------------------------------
    G------------------------------------------
    B-9-7-9-11-9-7-9-11-9-7-5-7-9-11-----------
    E------------------------------------------
    
    E------------------------------------------
    D------------------------------------------
    A------------------------------------------
    G-------------------------------------2----
    B------------------------10-9-7-5-3---3----
    E-1
  • +
    ¡Colabora con nosotros!
    Envíanos tu versión de esta canción

Letra de Amorcito corazón
Amorcito corazón
yo tengo tentación de un beso
que se prenda en el calor
de nuestro gran amor mi amor
Yo quiero ser un solo ser un ser contigo
te quiero ver en el querer para soñar
En la dulce sensación de un beso mordelon quisiera
amorcito corazón decirte mi pasión por ti
compañeros en el bien y el mal
ni los años nos podrán pesar
amorcito corazón seras mi amor.




[Amorcito corazón chords][Amorcito corazón cifra]
© LaCuerda.net · aviso legal · privacidad · es · en · pt · contacto