Acordes de Guitarra » P »Pedro Infante » Luna De Octubre (Tab)

Luna De Octubre
Pedro Infante

  • Letra y Acordes
             LAm                              MI7  
    DE LAS LUNAS, LA DE OCTUBRE ES LA MAS HERMOSA
                                   LAm
    PORQUE EN ELLA SE REFLEJA LA QUIETUD
          LA7                           REm
    DE DOS ALMAS QUE AN QUERIDO SER DICHOSAS
         MI7                     LA   MIdim.--MI7
    AL ARRULLO DE SU PLENA JUVENTUD
    
        LA          MI7
    CORAZON QUE HAS SENTIDO EL CALOR
    
    DE UNA LINDA MUJER 
                        MI7
    EN LAS NOCHES DE OCTUBRE;
    
    CORAZON QUE HAS SABIDO QUERER,
    
    QUE HAS SABIDO SUFRIR,
                     LA
    
  • Tablatura
    Este requinto es muy famoso, y todos quisieran tocarlo:
    
    
    1 --3-3-3-1------------------0-0-0-------------------
    2 -----------3--0---------1--------3--0--------------
    3 -----------------2--0----------------1-------------
    4 ----------------------------------------2--0-------
    5 -----------------------------------------------3-0-
    
    
    1 ----0--1--0----0-----0--1--0------0-----0---5--0---
    2 --4---------4-----4------------4-----4-------------
    3 ---------------------------------------------------
    4 ---------------------------------------------------
    5 ---------------------------------------------------
    
    
    1 ----------0--1--0----------------|
    2 -1--1--3-----------3--1--0-------|
    3 ----------------------------2----|
    4 ---------------------------------|
    5 ---------------------------------|
  • +
    ¡Colabora con nosotros!
    Envíanos tu versión de esta canción

Letra de Luna De Octubre
DE LAS LUNAS, LA DE OCTUBRE ES LA MAS HERMOSA
PORQUE EN ELLA SE REFLEJA LA QUIETUD
DE DOS ALMAS QUE AN QUERIDO SER DICHOSAS
AL ARRULLO DE SU PLENA JUVENTUD
CORAZON QUE HAS SENTIDO EL CALOR
DE UNA LINDA MUJER
EN LAS NOCHES DE OCTUBRE;
CORAZON QUE HAS SABIDO QUERER,
QUE HAS SABIDO SUFRIR,
DESAFIANDO EL DOLOR
HOY QUE EMPIEZA LA VIDA
TAN SOLO AL PENSAR
QUE TU AMOR SE DESCUBRE;
EL CÁSTIDO DE AYER
QUE ME DISTE TAN CRUEL
PARECE QUE MURIO.
SI ME VOY, NO PERTURBES JAMAS
LA RISUEÑA ILUCION DE MIS SUEÑOS DORADOS;
SI ME VOY, NUNCA PIENSES JAMAS
QUE ES CON UNICO FIN DE ESTAR LEJOS DE TI.
VIVIRE CON LA ETERNA PASION QUE SENTI
DESDE EL DIA EN QUE TE VI,
DESDE EL DIA EN QUE SOÑE
QUE SERIAS PARA MI.
RITMO: VALS
UN SALUDO PARA TODOS LOS COMPAS DE ATAME, SI QUIEREN INTERCAMBIAR ROLAS ESTE EN MI
E-MAIL:esteban_e2001@yahoo.com.mx ESCRIBANME QUIERO SABER MAS ROLAS Y QUIEN MEJOR
QUE LOS COMPAS DE ATAME.
POSDATA: PRONTO ESTARA OTRA ROLA ESPERENLA.



© LaCuerda.net · aviso legal · privacidad · contacto