Tablatura para Guitarra de Patricio Rey y sus Redonditos de Ricota: Preso en mi ciudad
Conexión · Inscripción
Letras y Acordes
Pantalla Completa
Imprimir
Versión Texto
Añadir Favorito
Otras Versiones

Mostrar Diagramas
Desfile Automático
Manipular Acordes
Formato del Texto


Preso en mi ciudad(TAB)

Patricio Rey y sus Redonditos de Ricota

calidad:
redo0688
AUTOR: (solari-beilinson)
ALBUM: Oktubre
Enviado por pedro
Riff 1:


----------------------------------------------------
----------------------------------------------------
-4-----4--------------------------------------------
----7-----7--5--4-----4--5--------4--5--------------
-------------------7-----------7--------------------
----------------------------7-----------7--5--------



Riff 2:


----------------------------------------------------
----------------------------------------------------
----------------------------------------------------
----------------------------4-----4-----4-----4-----
----4--5--7-----4--5--7--------7-----------7--------
-7------------7----------5-----------5--------------


---------------------------------------------------
---------------------------------------------------
---------------------------------------------------
---------------------------------------4-----------
--4--5--7------4--5—7------------------------------
7------------7---------55555555--7--5--------------



Intro: Hay dos guitarras, una toca:
-5--5--7--7--------
-5--5--7--7--------
-------------------
-------------------
-------------------
-------------------   x2


Y la otra toca:
-------------------------------------
-------------------------------------
-------------------------------------
-7--7-----7--7-----7--7-----7--7-----
-7--7-----7--7-----7--7-----7--7-----
-5--5--0--5--5--0--5--5--0--5--5--0--


---------------------------------------
---------------------------------------
---------------------------------------
9--9-----9--9-----9--9-----9-----9-----
9--9-----9--9-----9--9-----9-----9-----
7--7--0--7--7--0--7--7--0--7--0--7--0--   Todo x2



Riff 1
Una vez le hice el amor a un
drácula con tacones:
era un "pop" violento que guió
el gran estilo siniestro.

Riff 2
Ahora ya no llora...
¡Preso en mi ciudad!
Casi ya no llora,
¡atrapado en libertad!.

Riff 1
Practicamos tiro al pichón
y un test para ir al espacio
con mi delicioso campeón
y el rock como todo llanto

Riff 2
Ahora ya no llora...
¡Preso en mi ciudad!
Casi ya no llora,
¡atrapado en libertad!

Riff 1
Fue un esclavo sensible y chillón
y fácil para el gatillo
atrapó un beso bienhechor
con ojos al rojo vivo.

Riff 2

Riff 1
Una vez le hice el amor a una
drácula con tacones:
era un "pop" violento que guió
el gran estilo siniestro.

Riff 2
Ahora ya no llora...
¡Preso en mi ciudad!
Casi ya no llora,
¡atrapado en libertad!.

Riff 1
Practicamos tiro al pichón
y un test para ir al espacio
con mi delicioso campeón
y el rock como todo llanto

Riff 2
Ahora ya no llora...
¡Preso en mi ciudad!
Casi ya no llora,
¡atrapado en libertad!
Este fichero es trabajo propio de su transcriptor y representa su interpretación personal de la canción. El material contenido en esta página es
para exclusivo uso privado, por lo que se prohibe su reproducción o retransmisión, así como su uso para fines comerciales.

© LaCuerda.net · Aviso Legal · Privacidad