Tablatura para Guitarra de Patricio Rey y sus Redonditos de Ricota: Preso en mi ciudad
Conexión · Inscripción
Letras y Acordes
Pantalla Completa
Imprimir
Versión Texto
Añadir Favorito
Otras Versiones

Mostrar Diagramas
Desfile Automático
Manipular Acordes
Formato del Texto


Preso en mi ciudad(TAB)

Patricio Rey y sus Redonditos de Ricota

calidad:
redo0686
AUTOR: (solari-beilinson)
ALBUM: Oktubre
Enviado por Fernando
preso en mi ciudad (version vivo antultimo ensayo)

INTRO
1|-----(5)--5---------(7)--7----
2|-----(5)---5--------(7)---7---
3|-----(6)----6-------(8)----8--
4|-(7)----------------(9)-------
5|-(7)----------------(9)-------
6|-(5)----------------(7)-------

RIFF
1|------------------------------------
2|------------------------------------
3|---4---2---4-2----------------------
4|--------------5-4-2-4-5---2-4-5-----
5|-----------------------2-------2----
6|----------------------------------5-

RIFF2
1|----------------------------------------------------------------------
2|----------------------------------------------------------------------
3|----------------------------------------------------------------------
4|---------2------2---4--4----4--4------------2------2---(7)------7(x5)-
5|-2--4--5--2-4-5-------7-------7-----2--4--5--2-4-5-----(7)------------
6|------------------5-------5----------------------------(5)--7-5-------

INTER
1|--------------------------------------------
2|---------------5-7-8-7h8-5------------------
3|--------4-6-7--------------7-6-7-6-4--------
4|---5-7-------------------------------6s7b---
5|--------------------------------------------
6|--------------------------------------------

1|-----(7)---7t5--------------------------------
2|-----(7)-------7-5-------5--5-7-9-10-12-15-17-
3|---5—(7)-----------7-4-7----------------------
4|-7--------------------------------------------
5|----------------------------------------------
6|----------------------------------------------

INTRO

RIFF
una vez le hice el amor, a un dracula con tacones
era un pop violento que dio
el gran estilo siniestro

RIFF2
ahora ya no llora preso en mi ciudad
casi ya no llora atrapado en libertad

RIFF
un esclavo sencible y chillon y facil para el gatillo
atrapo un preso bienechor con ojos al rojo vivo

INTER

RIFF
practicamos tiro al pichon
y un tes para el espacio,
sombi de delicioso campeon
y el rock como todo llanto

RIFF2
ahora ya no llora preso en mi ciudad
casi ya no llora atrapado en libertad

RIFF
una vez le hice el amor, a un dracula con tacones
era un pop violento que dio
el gran estilo siniestro

RIFF2
ahora ya no llora preso en mi ciudad
casi ya no llora atrapado en libertad!!!!

INTER
Este fichero es trabajo propio de su transcriptor y representa su interpretación personal de la canción. El material contenido en esta página es
para exclusivo uso privado, por lo que se prohibe su reproducción o retransmisión, así como su uso para fines comerciales.

© LaCuerda.net · Aviso Legal · Privacidad