Tablatura para Bajo de Patricio Rey y sus Redonditos de Ricota: Me matan limón
Conexión · Inscripción
Letras y Acordes
Pantalla Completa
Imprimir
Versión Texto
Añadir Favorito
Otras Versiones

Mostrar Diagramas
Desfile Automático
Formato del Texto


Me matan limón(BAJ)

Patricio Rey y sus Redonditos de Ricota

calidad:
redo0555
AUTOR: Solari-Bellinson
ALBUM: Luzbulito
Enviado por Mauricio
Está sacada lo más exacto posible.
Pueden ver el video en https://www.youtube.com/watch?v=5Bef8lO7ojQ
https://bajosredondos.wixsite.com/website
Abrazo redondo!


Intro
G|------------------------------------------------------------------------|
D|------------------------------------------------------------------------|
A|-------------------------------------33-1-33--33-1-33-------------------|
E|-33-1-33--33-1-33--11-0-11--11-0-11-------------------1-33-1-33--33-1-33|

Verso 1 igual que intro
Verso 2 igual que intro


Estribillo x 2
G|-----------------------------------------|
D|-----------------------------------------|
A|-33-1-33--33-1-33-1----------------------|
E|-----------------------33-1-33--33-1-33--|

Verso 3 leve variación
G|------------------------------------------------------------------------|
D|----------------------------------------------11-33---------------------|
A|-------------------------------------33-1-33----------------------------|
E|-33-1-33--33-1-33--11-0-11--11-0-11--------------------33-1-33--33-1-333|

Verso 4 igual que intro

Estribillo segunda vuelta con leve variación

G|-----------------------------------------|
D|-----------------------------------------|
A|-33-1-33--33-1-33-1----------------------|
E|-----------------------33-1-33--33-1-33--|

G|-----------------------------------------|
D|-----------1-33--------------------------|
A|-33-1-33---------------------------------|
E|-------------------33-1-33--33-1-33--11--|


Solo
G|------------------------------------------------------------------------|
D|------------------------------------------------------------------------|
A|------------------4-2------------------4-2-------------------5-3--------|
E|-44-2-44--44-2-44-----44-2-44--44-2-44------55-3-55--55-3-55------------|

G|--------------------------------------|
D|--------------------------------------|
A|-------------------5-3---3---2-1------|
E|--55-3-55--55-3-55--------------------|

G|------------------------------------------------------------|
D|------------------------------------------------------------|
A|-------------------5-3---3--5--5--7--7--7-7-75-5------------|
E|-55-3-55--55-3-55-------------------------------------------|


Verso 5 igual que intro

Verso 6 leve variación
G|------------------------------------------------------------------------|
D|----------------------------------------------11-33---------------------|
A|-------------------------------------33-1-33----------------------------|
E|-33-1-33--33-1-33--11-0-11--11-0-11--------------------33-1-33--33-1-333|

Estribillo x 2
Estribillo con leve variación

G|-----------------------------------------|
D|-----------------------------------------|
A|-33-1-33--33-1-33-1----------------------|
E|-----------------------33-1-33--33-1-33--|

G|-----------------------------------------|
D|-----------11-33-------------------------|
A|-33-1-33---------------------------------|
E|-------------------33-1-33--33-1-33--11--|

Última vuelta de etribillo

G|-----------------------------------------|
D|-----------1--3--------------------------|
A|-33-1-33---------------------------------|
E|-------------------3---------------------|
Este fichero es trabajo propio de su transcriptor y representa su interpretación personal de la canción. El material contenido en esta página es
para exclusivo uso privado, por lo que se prohibe su reproducción o retransmisión, así como su uso para fines comerciales.

© LaCuerda.net · Aviso Legal · Privacidad