Tablatura para Bajo de Patricio Rey y sus Redonditos de Ricota: Me matan limón
Conexión · Inscripción
Letras y Acordes
Pantalla Completa
Imprimir
Versión Texto
Añadir Favorito
Otras Versiones

Mostrar Diagramas
Desfile Automático
Formato del Texto


Me matan limón(BAJ)

Patricio Rey y sus Redonditos de Ricota

calidad:
redo0552
AUTOR: Solari-Bellinson
ALBUM: Luzbulito
Enviado por Maxi
Esta versión me parece que suena mejor, sobre todo la parte del solo...

Aguante la Gloria!

Intro
G|------------------------------------------------------------------------|
D|------------------------------------------------------------------------|
A|-------------------------------------33-1-33--33-1-33-------------------|
E|-33-1-33--33-1-33--11-0-11--11-0-11-------------------1-33-1-33--33-1-33|

G|------------------------------------------------------------------------|
D|------------------------------------------------------------------------|
A|-------------------------------------33-1-33--33-1-33-------------------|
E|-33-1-33--33-1-33--11-0-11--11-0-11-------------------1-33-1-33--33-1-33|


Verso
G|------------------------------------------------------------------------|
D|------------------------------------------------------------------------|
A|-------------------------------------33-1-33--33-1-33-------------------|
E|-33-1-33--33-1-33--11-0-11--11-0-11-------------------1-33-1-33--33-1-33|

G|------------------------------------------------------------------------|
D|------------------------------------------------------------------------|
A|-------------------------------------33-1-33--33-1-33-------------------|
E|-33-1-33--33-1-33--11-0-11--11-0-11-------------------1-33-1-33--33-1-33|


Coro
G|-----------------------------------------|
D|-----------------------------------------|
A|-33-1-33--33-1-33------------------------|
E|---------------------1-33-1-33--33-1-33--|

G|-----------------------------------------|
D|-----------------------------------------|
A|-33-1-33--33-1-33------------------------|
E|---------------------1-33-1-33--33-1-33--|


Verso
G|------------------------------------------------------------------------|
D|------------------------------------------------------------------------|
A|-------------------------------------33-1-33--11--33--------------------|
E|-33-1-33--33-1-33--11-0-11--11-0-11-------------------33-1-33--33-1-33--|

G|------------------------------------------------------------------------|
D|------------------------------------------------------------------------|
A|-------------------------------------33-1-33--33-1-33-------------------|
E|-33-1-33--33-1-33--11-0-11--11-0-11-------------------1-33-1-33--33-1-33|


Coro
G|-----------------------------------------|
D|-----------------------------------------|
A|-33-1-33--33-1-33------------------------|
E|---------------------1-33-1-33--33-1-33--|

G|-----------------------------------------|
D|-----------------------------------------|
A|-33-1-33--11---33------------------------|
E|-----------------------33-1-33--33-1-33--|


Solo
G|------------------------------------------------------------------------|
D|------------------------------------------------------------------------|
A|------------------4-2------------------4-2-------------------5-3--------|
E|-44-2-44--44-2-44-----44-2-44--44-2-44------55-3-55--55-3-55------------|

G|--------------------------------------|
D|--------------------------------------|
A|-------------------5-(3)-/-(2)-/-(1)--|
E|--55-3-55--55-3-55--------------------|

G|------------------------------------------------------------|
D|------------------------------------------------------------|
A|-------------------5--(3)-/-5-55--/-7-7777777---33----------|
E|-55-3-55--55-3-55-------------------------------------------|


Verso
G|------------------------------------------------------------------------|
D|------------------------------------------------------------------------|
A|-------------------------------------33-1-33--33-1-33-------------------|
E|-33-1-33--33-1-33--11-0-11--11-0-11-------------------1-33-1-33--33-1-33|

G|------------------------------------------------------------------------|
D|------------------------------------------------------------------------|
A|-------------------------------------33-1-33---11--33-------------------|
E|-33-1-33--33-1-33--11-0-11--11-0-11---------------------33-1-33--33-1-33|


Coro
G|-----------------------------------------|
D|-----------------------------------------|
A|-33-1-33--33-1-33-3----------------------|
E|---------------------1-33-1-33--33-1-33--|

G|-----------------------------------------|
D|-----------------------------------------|
A|-33-1-33--33-1-33-3----------------------|
E|---------------------1-33-1-33--33-1-33--|

G|-----------------------------------------|
D|-----------------------------------------|
A|-33-1-33--11---33--55--------------------|
E|-----------------------33-1-33--33-1-33--|


G|--------------------------------------|
D|--------------------------------------|
A|-33-1-33--11---33---------------------|
E|--------------------(3)---------------|
Este fichero es trabajo propio de su transcriptor y representa su interpretación personal de la canción. El material contenido en esta página es
para exclusivo uso privado, por lo que se prohibe su reproducción o retransmisión, así como su uso para fines comerciales.

© LaCuerda.net · Aviso Legal · Privacidad