Acordes de Guitarra » P »Las Pastillas del Abuelo » Sabina y Piazzola (Tab)

Sabina y Piazzola
Las Pastillas del Abuelo

Letras, Acordes y Tabs para Guitarra, Bajo y Ukulele

  • Dm                  C                   Bb
    Ella buscaba en su armario, porque había perdido la razón,
    Dm             C             Bb
    yo exprimía diccionarios, para poder hacer una canción.
    Dm            C                       Bb
    No me acuerdo muy bien cuántos besos dejamos en cada esquina,
    Dm             C                  Bb                           F
    pero imposible olvidarme de aquel cuarto donde aquella noche subió
              C
    la adrenalina.
    
    
           G
    se juntaron Rosario y la Capital,
           Bb
    se juntaron el bien y el mal,
           F
    se juntaron dos almas en una sola
           C
    se juntaron Sabina y Piazzolla.
    
  •         Dm           C                    Bb
     e|----------------------0-0-1-0-----|-------1-----1-----1-----|
     B|---------6----------1---------1---|---------3-----3-----3---|
     G|-----7-----7------0-------------0-|-----3-----3-----3-----3-|
     D|---7---7-----7--------------------|---3---------------------|
     A|-5--------------3-----------------|-1-----------------------|
     E|----------------------------------|-------------------------|
    
            Dm           C                    Bb
     e|----------------------0-0-1-0-----|-1-------1---------------|
     B|---------6----------1---------1---|---3-------3-------------|
     G|-----7-----7------0-------------0-|-----3-------3-----------|
     D|---7---7-----7--------------------|-------3-----------------|
     A|-5--------------3-----------------|-1-----------------------|
     E|----------------------------------|-------------------------|
    
    
    
     Dm                  C
    Ella buscaba en su armario
    
  •      Dm               Cm             Bbm
     e|-----------------------------------------1----1-----1----------|
     B|---------6---------------4----------------------------2--------|
     G|-----7-----7-----------5---5-----------3---3----3-------3------|
     D|---7---7-----7-------5-------5-------3------3-----3------------|
     A|--5------------5---3-----------3---1---------------------------|
     E|---------------------------------------------------------------|
    
    tramo 2
    
          Dm               Cm             Bbm
     e|---------5--------------3----------1---------------------------|
     B|-----------6-------------------------1-----3-------------------|
     G|-----7-------7--------5----5-----------3---3-------------------|
     D|---7---7-------7-----5-------5-----------3---------------------|
     A|-5-----------------3-----------3-------------------------------|
     E|---------------------------------------------------------------|
    
    tramo 3
    
    
  • +
    ¡Colabora con nosotros!
    Envíanos tu versión de esta canción

Letra de Sabina y Piazzola
Ella buscaba en su armario, porque había perdido la razón,
yo exprimía diccionarios, para poder hacer una canción.
No me acuerdo muy bien cuántos besos dejamos en cada esquina,
pero imposible olvidarme de aquel cuarto donde aquella noche subió
la adrenalina.
se juntaron Rosario y la Capital,
se juntaron el bien y el mal,
se juntaron dos almas en una sola
se juntaron Sabina y Piazzolla.
Se juntó una religión que era puro corazón
con otra que nunca existió,
se juntaron dos camas y no alcanzaban
para tanto fuego, tanta acción,
tanto descontrol.
Elegimos el colchón más chico
y pareció de dos plazas,
cuando el colchón terminó bienvenido fue el piso
del comedor de su casa.
A cada beso caía una estrella,
cada arañazo calmaba el dolor,
cuando me acuerdo de ella
levanto mi vaso y brindo
adonde quiera que estés
por nuestra canción.
SALMON




[Sabina y Piazzola chords][Sabina y Piazzola cifra]
© LaCuerda.net · aviso legal · privacidad · es · en · pt · contacto