Acordes de Guitarra » P »Las Pastillas del Abuelo » Loco por volverla a ver (Tab)

Loco por volverla a ver
Las Pastillas del Abuelo

Letras, Acordes y Tabs para Guitarra, Bajo y Ukulele

  • C
    Sabes que no sueño con vos al dormir
       Dm
    No es bueno soñar con los angeles de hoy
       F                                         C
    Sabes que miento siempre que hay una buena ocasión
    
       C
    También sabes que un consejero me dijo
       Dm
    Hecho el amor hecha la trampa y al pie
       F                                   C
    de la letra sigo ese hermoso consejo cruel.
    
       C
    El que no arriesga no gana dijiste,
       Dm
    El que arriesga puede morir por amor
       F                                   C
    te dije y comprendiste que no iba a ser yo
    
  •    Intro: C - Dm - F - C (x3)
    
          C
       Sabes que no sueño con vos al dormir,
      Dm
       no es bueno soñar con los angeles de hoy
      F                                                  C
       Sabes que miento siempre que hay una buena ocasión
    
            C
       También sabes que un consejero me dijo
      Dm
       Hecho el amor hecha la trampa y al pie
      F                                        C - C* - C
       de la letra sigo ese hermoso consejo cruel.
    
       C
       El que no arriesga no gana dijiste,
      Dm
       el que arriesga puede morir por amor
    
  •       DO
    1|-------------5-8-5---------5---
    2|-------5--8---------8-5-8------
    3|----5--------------------------
    4|-------------------------------
    5|-------------------------------
    6|-------------------------------
    
    
            REm
    1|----------5---8--8h12---10--8----
    2|-------6-------------------------
    3|----7----------------------------
    4|---------------------------------
    5|---------------------------------
    6|---------------------------------
    
            FA                      DO
    1|----------------------------------
    2|--5h6--5------5h6-----5-----------
    
  • la intro la hace la armonica pero ya fue la pongo porqe esta buena :P
    
    E--------------------------------------------------------------------
    A---3--------------------|--5-----------------|--------5-3------5-3-3
    D-----2-5-------5-3-5----|----3---------------|---3-2-------2-3------
    G---------2-5-2-------2--|------2-5---7/9-7-5-|----------------------
    
    
    E----------------------
    A--3-0-3--3------------
    D-----------2-5--------
    G---------------2-5-2--
    sabes qe no sueño con vos al dormir
    
    E---5-----------------------
    A-5---5--5-------5-----3----
    D----------2-3-2---2/3---3--
    G---------------------------
    no es bueno soñar con los angeles de hoy
    
    E---------------------------
    A--5-------5-3-0-3----------
    D----2-3-2------------------
    G---------------------------
    sabes qe miento siempre qe hay una buena ocacion
    
    E--------------------------
    A--3-5---------------------
    D------3-2-0---------------
    G--------------------------
    ...
    
    (estribillo)
    antes de empezar hace
    E----------------------
    A----3-3----
  • Introducción y armónica del medio en armónica C
    La trasncripcion es de la version en vivo..
    y empieza maso en el minuto 1.19
    
    4 5 6 (6) 7 (6) 6 5 6 (6)
    
    (4)b(4) (5) (6) 7 8 (8) 7
    
    (5)b(5) 5 (4) 4 (5) 5 (4)b(4) 4 4
    
    
    4 5 6 (6) 7 (6) 6 5 6 (6)
    
    (4)b(4) (5) (6) 7 8 (8) 7
    
    (5)b(5) 5 (4) 4 (5) 5 (4)b(4) 4 4
    
    
    repite lo mismo en el "solo" del medio
  • +
    ¡Colabora con nosotros!
    Envíanos tu versión de esta canción
  • Tutorial
    Como tocar loco por volverla a ver las pastillas del abuelo
    3:42
  • Tutorial
    LOCO POR VOLVERLA A VER LAS PASTILLAS DEL ABUELO TUTORIAL GUITARRA ACORDES INTRO PUNTEO
    7:07

Letra de Loco por volverla a ver
Sabes que no sueño con vos al dormir
No es bueno soñar con los angeles de hoy
Sabes que miento siempre que hay una buena ocasión
También sabes que un consejero me dijo
Hecho el amor hecha la trampa y al pie
de la letra sigo ese hermoso consejo cruel.
El que no arriesga no gana dijiste,
El que arriesga puede morir por amor
te dije y comprendiste que no iba a ser yo
El que cubra tu cuerpo en noches de frío
el que te regale rosas sin espinas
el que aparte de ser sexo sea un amigo
el que derroche amor en cada esquina
¿tanto te cuesta dar besos a una sola?
te juro que amor nunca te va a faltar
mi amor eso no importa lo que importa es variedad
Es mejor ser presa de un hombre y no el polvo
insipido y oscuro de más de dos dijiste
y comprendi que no ibas a ser vos
La que comparta mis besos con cualquiera
la que pise fuerte el acelerador
la que quiera hacerlo de muchas maneras
la que sepa bien fingir cuando no haya amor
Pero les cuento señores que me asombra
lo mucho que puede cambiar la mujer
ahora ella es la que se esconde entre las sombras
y yo estoy aqui tan loco por volverla a ver
Tendré que tomar el toro por las astas
es que ya no tengo tiempo que perder
esta vida no me tira buenas cartas
pero en otra vida espero volverla a ver
ESTE TEMA ES EL PRIMERO QUE MANDO, ESTA SACADO A
OIDO Y SUENA BASTANTE BIEN.
SE LO DEDICO A MI NOVIA MAIA QUE FUE LA QUE ME
INSPIRO.
DISFRUTENLA QUE ES UN MUY BUEN TEMA DE LAS PASTILLAS




[Loco por volverla a ver chords][Loco por volverla a ver cifra]
© LaCuerda.net · aviso legal · privacidad · es · en · pt · contacto