Acordes de Guitarra » P »Las Pastillas del Abuelo » Princesa (Tab)

Princesa
Las Pastillas del Abuelo

Letras, Acordes y Tabs para Guitarra, Bajo y Ukulele

  • G
    Princesa de todos mis palacios
    Si me pudieran dar a elegir
    Como y donde yo quisiera morir
    Contestaría acostado
    Em             D
    Feliz de estar a tu lado
    C                   D
    Victima de un sexo exagerado
    Em        D                  C
    Sonriendo, mirando el techo
    D                   G
    Con tu cabeza en mi pecho
    
    G
    Sabes, me cuesta hacer este viaje
    No, no es que no tenga esperanza
    Yo confío mucho en tu enseñanza
    Vos confía, confía en mi aprendizaje
    Em        D
    
  • Intro: G*
    
    G*
    Princesa de todos mis palacios
    si me pudieran dar a elegir
    como y donde yo quisiera morir
    contestaría acostado
    
    Am             D
    Feliz de estar a tu lado
    Am                  Em
    victima de un sexo exagerado
    Am        D                G  Em
    sonriendo, mirando el techo
    Am        D         G*
    con tu cabeza en mi pecho
    
    G*
    Sabes, me cuesta hacer este viaje
    no, no es que no tenga esperanza
    
  • e|-------------------------------------------------|
    B|-------------------------------------------------|
    G|-------------------------------------------------|
    D|----------0h2--0---------------------------------|
    A|------0h2---------2-0----------------------------|
    E|--0h3------------------3-------------------------|
    
    Riff2 (en G)
    e|----3------3-----------------3-------------------|
    B|--3---3--3---3-------------3---3--3--------------|
    G|-------------------------------------------------|
    D|--5------------------5-----5---------------------|
    A|---------5------3h5---------------5--------------|
    E|-----------------------3-------------------------|
    
    Riff3 (en G)
    e|----3-------|
    B|--3---3--3--|
    G|------------|
    D|--5---------|
    
  • e|-------------------------------------------------|
    B|-------------------------------------------------|
    G|-------------------------------------------------|
    D|----------0h2--0---------------------------------|
    A|------0h2---------2-0----------------------------|
    E|--0h3------------------3-------------------------|
    Riff2
    e|-----3-----------3---X------------3------------------|
    B|--3--------3--3----3-X----------3----3-3-------------|
    G|--0--------0--0----0-X-----0----0----0-0-------------|
    D|--0--------2--0----2-X-0h2------0----2-0-------------|
    A|--------3----------3-X-------------3-----------------|
    E|--------------3------X-------3---------3-------------|
    (Riff1)
    (Riff2)
    
    Cantando
    (Riff1)
    
    Riff3              r  r                       r r
    
  • +
    ¡Colabora con nosotros!
    Envíanos tu versión de esta canción

Letra de Princesa
Princesa de todos mis palacios
Si me pudieran dar a elegir
Como y donde yo quisiera morir
Contestaría acostado
Feliz de estar a tu lado
Victima de un sexo exagerado
Sonriendo, mirando el techo
Con tu cabeza en mi pecho
Sabes, me cuesta hacer este viaje
No, no es que no tenga esperanza
Yo confío mucho en tu enseñanza
Vos confía, confía en mi aprendizaje
Y si para nuestro amor
No encuentro un buen adjetivo
Es por que te amo mucho, mucho mas
Del te amo que te digo
Entre el alcohol y algo mas
Quede moribundo
Cansado ya de soñar
Y hoy puedo hacer la canción mas hermosa del mundo
Y besarte al despertar
Tengo un amigo en españa q es cantautor
No me conoce pero nos llevamos bien
Hizo una canción se llama y sin embargo
De esa canción yo ya no me puedo hacer cargo
Por q habla de ser infiel
Aun amando con locura
Lamento decir esto
Pero por fin se equivoco Joaquin...
Yo controlaba este juego
Al principio era el dueño
Firmaba cualquier papel
Y hoy sos la protagonista de todos mis sueños
Soy esclavo de tu piel




[Princesa chords][Princesa cifra]
© LaCuerda.net · aviso legal · privacidad · es · en · pt · contacto