Acordes de Guitarra » P »Las Pastillas del Abuelo » Hombre Mosca (Tab)

Hombre Mosca
Las Pastillas del Abuelo

Letras, Notas, Punteos, Tablaturas y Acordes de Guitarra (Tabs & Chords)

  • Letra y Acordes
    G-C-D-G
    
            G
    Cuando Gandhi sale de Coto
              C/G
    los compañeros voltean a mirarlo
             D/A
    todos se tienen que ir
                                 G
    y nadie quiere acompañarlo
    
    Camisa blanca muy lungo tez morena
    los ojos rojos siempre en su mirada
    va por la plaza y manguea una tuca garroneada
    
    Es una percha, una goma, un garrón
    es como un chicle no es broma, es un bajón!
    guarda que engaña, no es el hombre araña...
    es el hombre mosca!!
    
    
  • Letra y Acordes
                 G                             C                 D
    e|----------------------------------------------------------------
    B|---3-3--3---3---3-3---3---3---1-1---1-1---1-1---1-1---3-3---3-3-
    G|---0-0--0---0---0-0---0---0---0-0---0-0---0-0---0-0---2-2---2-2-
    D|----------0-------------0---------------------------0-----------
    A|-------2------------2-------3-----3-----3-----3-----------0-----
    E|-3------------3-------------------------------------------------
              D              G
    e|-------------------------------
    B|---3-3---3---3---3-3---3---3---
    G|---2-2---2---2---0-0---0---0---
    D|-0---------0-------------0-----
    A|-------0-------------2---------
    E|---------------3-------------3-
    
    
    Este tab lo usa en todas las estrofas, excepto en los estribillos,
    en los que rasguea.
    
            G
    
  • Tablatura
      G                           C/G
    e|---------------------------|---------------------------|
    B|---3-3---3-3---3-3---3---3-|---1-1---1-1---1-1---1---1-|
    G|---0-0---0-0---0-0---0---0-|---0-0---0-0---0-0---0---0-|
    D|-----------------------0---|---------------------------|
    A|-------2-----------2-------|-3-----------3---------3---|
    E|-3-----------3-------------|-------3-----------3-------|
    
      D/A                         G
    e|---2-2---2-2---2-2---2---2-|---------------------------|
    B|---3-3---3-3---3-3---3---3-|---3-3---3-3---------------|
    G|---------------------------|---0-0---0-0---------------|
    D|-0-----------0---------0---|---------------------------|
    A|-------0-----------0-------|-------2-------------------|
    E|---------------------------|-3-----------3*------------|
    
    *nota: pausa hasta terminar el tiempo y arranca con el 1er verso
    
    
    
    
  • +
    ¡Colabora con nosotros!
    Envíanos tu versión de esta canción

Letra de Hombre Mosca
Cuando Gandhi sale de Coto
los compañeros voltean a mirarlo
todos se tienen que ir
y nadie quiere acompañarlo
Camisa blanca muy lungo tez morena
los ojos rojos siempre en su mirada
va por la plaza y manguea una tuca garroneada
Es una percha, una goma, un garrón
es como un chicle no es broma, es un bajón!
guarda que engaña, no es el hombre araña...
es el hombre mosca!!
Estribillo:
Y se comenta que pega medio kilo
no tiene problemas todo es para él
cuando se corta la torta,
cuando se divide el papel
siempre esta el...el hombre mosca!
Su flora intestinal es toda verde
y tiene un radar en la nariz
menos yerba todo pierde y la caja nunca le da
sin vergüenza va...el hombre mosca!
Te toca, te pisa el talón, te cachetea
si te queda el último bocado el te lo papea
no para siempre te mosquea
porque es el hombre mosca
Estribillo:
Y se comenta que pega medio kilo
no tiene problemas todo es para él
cuando se corta la torta,
cuando se divide el papel
siempre esta el...el hombre mosca!
Su flora intestinal es toda verde
y tiene un radar en la nariz
menos yerba todo pierde y la caja nunca le da
sin vergüenza va...el hombre mosca!
Y no discrimina amigos ni mujeres
familiares compañeros de ocasión
siempre disponible para despertar la irritación
que mosca sos...hombre mosca!
Se te va a acabar ese latido
hombre mosca alguien se va a cansar
pero siempre un zumbido de fondo vamos a escuchar
porque hay alguien que responde tras tu ausencia
porque hay alguien que ya empezó a molestar
te conoce como Mario y nunca te dice papá
sin vergüenza va el mini-mosca
Cuando crezca le vas a enseñar tus trucos
y en la escuela lo van a querer matar
luego en la adolescencia no va a parar de mosquear
y pronto sera un hombre mosca contra la humanidad
contra la humanidad
contra la humanidad!!!
termina en la menor
bueno espero que les hayagustadooooo chau.

Videos de Hombre Mosca
[ver más videos]

[ver todas las canciones]


© LaCuerda.net · Aviso Legal · Privacidad