Acordes de Guitarra » P »Las Pastillas del Abuelo » Duda (Tab)
  • Letra y Acordes
    B/-4/5-4/0----5/4-7---------------------|
    G/---------2*-------4*-2-2-1-1*-2-1-----|
    D/----------------------------------4-2-|
    A/--------------------------------------|
    E/--------------------------------------|
    
    E/-------------------4------12-------------|
    B/-4/5-4/0----5/4-7*---7-5*----12-9--------|
    G/---------2*-----------------------9---1-2|
    D/------------------------------------9----|
    A/-----------------------------------------|
    E/-----------------------------------------|
    | * = dejar sonar la cuerda |
    
    
    Asus2                Bsus4
    Nose si el tiempo es propio
                   E       Eadd9  E  Eadd9
    de nuestra conciencia
    Asus2   Bsus4        E    Eadd9  E  Eadd9
    
  • Letra y Acordes
    e ------------
    b ---3/4/3-0--
    g ------------
    
    Riff A9 A9* Riff E E* x2
    
    A9                     A9*
    Nose si el tiempo es propio
                    E      E*
    de nuestra conciencia
    A9        A9*         E    E*
    nose si existe de verdad
    A9                A9*
    nose quien pueda comprobar
      C#m               B9
    si todo es una foto
    A9                 FA#m
    o va al ritmo de un tic tac
    C#m                 B9
    o va al ritmo de un tic tac
    
  • Tablatura
    E/-----------------------------------------------------|
    B/--4h5p4p0-------5p4-4/7------------------------------|
    G/---------2~---------------4----2p1-2p1--1---2-1------|
    D/-----------------------------------------------4-2---|
    A/-----------------------------------------------------|
    E/-----------------------------------------------------|
    
    E/----------------------------------12-7----------------(12)--|
    B/--4h5p4p0-------5p4-4/7-7/9-7----------9-5~-0---------------|
    G/---------2~-------------------9~--------------1-2~-(4)------|
    D/------------------------------------------------------------|
    A/------------------------------------------------------------|
    E/------------------------------------------------------------|
    
    Nose si el tiempo es propio
    
    de nuestra conciencia
    
    nose si existe de verdad
    
    
  • +
    ¡Colabora con nosotros!
    Envíanos tu versión de esta canción

Letra de Duda
Riff A9 A9* Riff E E* x2
Nose si el tiempo es propio
de nuestra conciencia
nose si existe de verdad
nose quien pueda comprobar
si todo es una foto
o va al ritmo de un tic tac
o va al ritmo de un tic tac
Riff A9 A9* Riff E E*
pero que diferencia hay
si de la conciencia
no nos podemos librar
esa guia inata y leal
que vos bien sabes
no siempre podemos respetar
no siempre podemos
y hoy debe ser la tuya
mi peor enemiga
la que te hecha la culpa
por no saber aguantar tus ganas y las mias
de parpadear una vez mas
vos no te preocupes
que yo voy a intentar
que pegue media vuelta
y patee para alla
se que no es irreversible este proceso
pero no quiero que vaya hacia atras
Riff A9 A9* Riff E E* x2
yo por ateo irracional
no tengo a quien rogarle
vos tan insegura
que queres cambiar de vida
yo de la esperanza
un mal amigo
y vos tan fragil como aquella hojita que
me pediste que guarde
y hoy debe ser la tuya
mi peor enemiga
la que te hecha la culpa
por no saber aguantar tus ganas y las mias
de parpadear una vez mas
vos no te preocupes
que yo voy a intentar
que pegue media vuelta
y patee para alla
se que no es irreversible este proceso
pero no quiero que vaya hacia atras
y hoy debe ser la tuya
mi peor enemiga
la que te hecha la culpa
por no saber aguantar tus ganas y las mias
de parpadear una vez mas
vos no te preocupes
que yo voy a intentar
que pegue media vuelta
y patee para alla
se que no es irreversible este proceso
pero no quiero que vaya hacia atras
y si es que el tiempo existe
yo quiero compartirlo
si todo es una foto
yo quiero estar
al lado tuyo
al lado tuyo quiero estar
en la foto quiero estar
al lado tuyo...
UNA VEZ MAS HOLA A TODOS LOS PASTILLEROS!!
MI NOMBRE ES CHARLIE Y SOY DE SGO DEL ESTERO.
ESTE TEMA ES UNO DE LOS MAS PEDIDOS ASI KE
AHORA LO PUEDEN TOCAR TRANQUILOS JAJAJA!!!
CHARLA, CON ESTE TEMA SIEMPRE ME VOY A ACORDAR
DE VOS PORQUE ESTA UNA DE LAS PRIMERAS FRASES
QUE NOS MANDAMOS EN LOS MENSAJES Y TAMBIEN
PORQUE ME ENCANTA LA FOTO QUE TENEMOS DE LOS
DOS!!!OSEA "SI TODO ES UNA FOTO, YO QUIERO ESTAR
AL LADO TUYO CHARLA"...ME MATA ESA FRASE PORQUE
ES VERDAD, LO UNICO QUE TENGO ES ESE RECUERDO,
ESA FOTO, AH Y UNA COLITA QUE LA TENGO EN LA
MUÑECA DERECHA JAJA!!!TE KIERO MUCHO, TE EXTRAÑO,
Y TENGO MUCHAS GANAS DE VERTE!!!
ESTA ERA LO QUE TENIA PREPARADO PARA VOS, DECICARTE
EL TEMA, ESPERO QUE AUNQUE NO SEAS INTERESADA
TE GUSTE JAJAJA TE KIERO LONCHI!!



© LaCuerda.net · aviso legal · privacidad · contacto
DINAMICO