Acordes de Guitarra » P »Pasteles Verdes » El último vals (Tab)

El último vals
Pasteles Verdes

Letras, Notas, Punteos, Tablaturas y Acordes de Guitarra (Tabs & Chords)

  • Tablatura
                   G      F#     G
    e[-------------7----7-6----6-7-----------]
    B[------7--------------------------------]
    G[--7-9---9-7----------------------------]
    
                   Am     E         Am
    e[-------------8----8-7----10-9-8--------]
    B[------7--------------------------------]
    G[--7-9---9-7----------------------------]
    
                        D
    e[------------------10-------------------]
    B[--------10-----------------------------]
    G[--11-12----12-11-----11-11-------------]
    
                   Am         Bm     G
    e[-------------8----------7----7---------]
    B[------7------------------------8-------]
    G[--7-9---9-7----9-9---7-----------------]
    
    
  • +
    ¡Colabora con nosotros!
    Envíanos tu versión de esta canción

Letra de El último vals
[2]
e[--7-6-5-4-3--]
[3]
[4]
[1], [2], [3] y [4] serán los nombres de los punteos.
Ahí empieza la canción...
Recuerdas ese vals
y ese beso apurado
que te dejé al partir
y en ti quedó grabado.
Es tanto mi dolor
que me destroza el alma
desde que tú no estás
te quiero más...
... Y sabrás que no olvidarás
no importa si me quieres al final...
...So--ña-rás y vi--vi-rás
en la felicidad.
Recuerdas ese vals
y ese beso apurado
que te dejé al partir
y en ti quedó grabado.
REP: [1] [2]
REP: Es tanto mi dolor.../
/...en la felicidad
REP: Y sabrás.../
/...en la felicidad
Recuerdas ese vals
y ese beso apurado
que te dejé al partir
y en ti quedó grabado.
(a ritmo de vals)
REP: [1] [1]...
Muy pronto............."Amor amor amor" - Nilton César
MIS PUBLICACIONES:
1) "Lo pasado pasado" - José José
2) "Prometimos no llorar" - Palito Ortega

Videos de El último vals
[ver más videos]

[ver todas las canciones]


© LaCuerda.net · Aviso Legal · Privacidad