Acordes de Guitarra » P »Pasteles Verdes » Esclavo y amo (Tab)

Esclavo y amo
Pasteles Verdes

Letras, Acordes y Tabs para Guitarra, Bajo y Ukulele

  •      Bm         A       G       F#7 
    E ----7----------------------------------------
    B --7------7-8-10---5-7-8---3-5-7--------------
    G ---------------------------------------------
    
    E --------------5-7-9---7-6--3-7--6-7-6--------
    B --7-8-7-5-7-8--------------------------8-7---
    G ---------------------------------------------
    
    E -----------------
    B -----------------
    G ----4--4-3-4---4-
    D --4-----------4--
    
    Bm       
    No se que tiene tus ojos
                       A  
    no se que tiene tu boca
                     G 
    que domina mis antojos
    
  • Cm-A#-G#-G
    
     Cm
    NO SE QUE TINEN TUS OJOS,
                      A#
    NO SE QUE TIENE TU BOCA QUE
                  G#
    DOMINA A MIS ANTOJOS Y A MI
                 G
    SANGRE VUELVE LOCA.
    
      Cm
    NO SE COMO FUI A QUERERTE,
                     A#
    NI COMO TE FUI ADORANDO
                       G#
    ME SIENTO MORIR MIL VECES
                      G
    CUANDO NO TE ESTOY AMANDO.
    
    
  •             Am         G          F
    e|-0--5-----|-0--1--3--|----------|----------|
    B|----------|----------|-3--5--6--|-1--3--5--|
    G|----------|----------|----------|----------|
    
          *** BAJO ***
     E
    D|-2--3--2--0-----------|
    A|------------3--2---0--|
    E|----------------------|
    
                   *** REQUINTO ***
                Am         G          F
    e|-0--5-----|-0--1--3--|----------|----------|
    B|----------|----------|-3--5--6--|-1--3--5--|
    G|----------|----------|----------|----------|
    
          *** BAJO ***
     E
    D|-2--3--2--0-----------|
    
  •     Am      G     F     E
    
    e|-0-5--0-1-3---0-1-----0-|
    B|------------3-----1-3---|
    G|------------------------|
    D|------------------------|
    A|------------------------|
    E|------------------------|
    
    
      SIN       ACOMPAÑAMIENTO
    
    e|-------------4-5-7-5-4---5-4-5-4----|-------------|
    B|-5-6-5-3-5-6-----------6---------6-5|-------------|
    G|------------------------------------|-------------|
    D|------------------------------------|---7-7-6-7---|
    A|------------------------------------|-7---------7-|
    E|------------------------------------|-------------|
    
    
    
  • +
    ¡Colabora con nosotros!
    Envíanos tu versión de esta canción

Letra de Esclavo y amo
No se que tiene tus ojos
no se que tiene tu boca
que domina mis antojos
y a mi sangre vuelve loca
No se como fui a quererte
ni como te fui adorando
me siento morir mil veces
cuando no te estoy mirando
De noche cuando me acuesto
a Dios le pido olvidarte
y al amanecer despierto
tan solo para adorarte
Que influencia tienen tus labios
que cuando me besan tiemblo
y hacen que me sienta esclavo
y amo del universo
De noche cuando me acuesto
a Dios le pido olvidarte
y al amanecer despierto
tan solo para adorarte
Que influencia tienen tus labios
que cuando me besan tiemblo
y hacen que me sienta esclavo
y amo del universo




[Esclavo y amo chords][Esclavo y amo cifra]
© LaCuerda.net · aviso legal · privacidad · es · en · pt · contacto