Acordes de Guitarra » P »Pasteles Verdes » Reloj (Tab)

Reloj
Pasteles Verdes

Letras, Acordes y Tabs para Guitarra, Bajo y Ukulele

  • e[--17--12---15-----17--12---10--]
    
    
    [2]
          G                    Em
    e[----10-10-10-8---7-7-8-10---12-12-12-12---12-12-12-12--]
    B[-------------------------------------------------------]
    G[--7----------------------------------------------------]
    
    
       Bm                  Am        D7
    e[--7-7-7-------------7---8-8-8-8---10-10-10-10----------]
    B[--------10---8-8-10------------------------------------]
    G[-------------------------------------------------------]
    
        G                 Am
    e[-------------------------------------------------------]
    B[--8-8-8-7-------7-8---10-10-10-10---10-10-10-10--------]
    G[------------9-9----------------------------------------]
    
    
  •   C       Am         Dm      G7
    RELOJ NO MARQUES LAS HORAS
     C      Am          Dm   G7
    PORQUE VOY A ENLOQUECEEEER
     C       Am        Dm     G7
    ELLA SE IRA PARA SIEMPRE
     C        Am          D  G7
    CUANDO AMANEZCA OTRA VEEEZ
       C       Am         Dm      G7
    NO MAS NOS QUEDA ESTA NOCHE
    C       Am         Dm      G7
    PARA VIVIR NUESTRO AMOOOOR
    C        Am       Dm      G7
    Y TU TIC TAC ME RECUERDA
    C         Am       Dm      G7
    MI IRREMEDIABLE DOLOOOOR
    
    coro
    
       C    Am        Em
    
  • e[--17--12---15-----17--12---10--]
    
    
    (b) Requinteo
    
          SOL                                         MIm
    e[-----10-10-10--------------10---12-12-12-12---12-12-12-12-]
    B[-------------13--12-12-13---------------------------------]
    G[----------------------------------------------------------]
    D[--12------------------------------------------------------]
    
       SIm                             LAm            RE7
    e[---------------------------------------------10-10-10-10--]
    B[--12-12-12--10---------10-12----13-13-13-13---------------]
    G[----------------12-12-------------------------------------]
    
    Requinto Opcional (esta parte se toca con el teclado)↓
    
        SOL                                         LAm
    e[----------------------------------------------------------]
    
  • +
    ¡Colabora con nosotros!
    Envíanos tu versión de esta canción

Letra de Reloj
RELOJ NO MARQUES LAS HORAS
PORQUE VOY A ENLOQUECEEEER
ELLA SE IRA PARA SIEMPRE
CUANDO AMANEZCA OTRA VEEEZ
NO MAS NOS QUEDA ESTA NOCHE
PARA VIVIR NUESTRO AMOOOOR
Y TU TIC TAC ME RECUERDA
MI IRREMEDIABLE DOLOOOOR
RELOJ DETEN TU CAMINOOOO
PORQUE MI VIDA SE ACABA
ELLA ES LA ESTRELLA QUE ALUMBRA MI SER
YO SIN SU AMOR NO SOY NADA
DETEN EL TIEMPO EN TUS MANOOOS
HAZ ESTA NOCHE PERPETUA
PARA QUE NUNCA SE VALLA DE MI
PARA QUE NUNCA AMANEZCA
RELOJ DETEN TU CAMINOOOO
PORQUE MI VIDA SE ACABA
ELLA ES LA ESTRELLA QUE ALUMBRA MI SER
YO SIN SU AMOR NO SOY NADA
DETEN EL TIEMPO EN TUS MANOOOS
HAZ ESTA NOCHE PERPETUA
PARA QUE NUNCA SE VALLA DE MI
PARA QUE NUNCA AMANEZCA
PARA QUE NUNCA AMANEZCA
PARA QUE NUNCA AMANEZCA.....
asi suena calidad en este tono...




[Reloj chords][Reloj cifra]
© LaCuerda.net · aviso legal · privacidad · es · en · pt · contacto