Acordes de Guitarra » P »Pappo » Trén de las 16 (Tab)

Trén de las 16
Pappo

Letras, Acordes y Tabs para Guitarra, Bajo y Ukulele

  • e|--------------------------------|
    B|--------------------------------|
    G|--------------------------------|
    D|-779-779-557-557----------------|
    A|-555-555-333-333-557-557--3-5----|
    E|-----------------222-222--------|
    
    
    
    
    
    G5
    Yo sólo quiero hacerte el amor,
      C5                            G5
    e ir caminando un rato bajo el sol,
      D5             C5         G5
    y de un momento a otro te diré,
        G5
    que tengo que dejarte otra vez,
        C5                               G5
    
  • Intro: D5 C5 G5 D7
    
    G5
    Yo sólo quiero hacerte el amor,
      C5                            G5
    e ir caminando un rato bajo el sol,
      D5             C5         G5  D7
    y de un momento a otro te diré,
        G5
    que tengo que dejarte otra vez,
        C5                               G5
    pero estaremos juntos hasta el amanecer,
       D5                         C5         G5    D7
    yo tomo el tren que sale a la hora dieciséis.
    
    Solo:
    
    em -h9-h8-h6--h8-h6--------------/
    Bm ----------------------7-7-7---/
    Gm ------------------------------/
    
  • Intro: D5 C5 G5 D7                    agus_corty@hotmail.com
                                      abajo especifico forma de
                                      tocar los acordes
    G5
    Yo sólo quiero hacerte el amor,
      C5                            G5
    e ir caminando un rato bajo el sol,
      D5             C5         G5  D7
    y de un momento a otro te diré,
        G5
    que tengo que dejarte otra vez,
        C5                               G5
    pero estaremos juntos hasta el amanecer,
       D5                         C5         G5    D7
    yo tomo el tren que sale a la hora dieciséis.
    
    solo en base a: G5 C5 G5 D5 C5 G5 C5 G5 D5 C5 G5
    
    1---10-8---7------------7-------10-8---7----------7~--------
    2-7------9---9------9-9---9-7--------9---9---8/9~-----------
    
  • El Tren De Las 16- Pappo
    
    
    Solo
    
    e|---------------------------------------------------------------
    B|---------------------------------------------------------------
    G|-17b-17-15-17-15------------15b--------17b-17-15-17-15---------
    D|----------------------17-17-----17-15------------------17-15-17
    A|-------------------17------------------------------------------
    E|---------------------------------------------------------------
    
    e|---------------------------------15------15---------------------
    B|------------------------------15----18b-----18-15----15---------
    G|15------17ba-p15----17b---17b---------------------18----17ba-p15
    D|-----17----------17---------------------------------------------
    A|----------------------------------------------------------------
    E|----------------------------------------------------------------
    
    e|-----------------------------------------------------------------
    B|-----------------------------------------------------------------
    G|----17-15--17ba-p15----17-15-
  • bueno esta es una tab facil de hacer, no tiene muchas
    variaciones, espero ke la disfruten 
    
    G--------------------------------
    D-------------------------------- Intro
    A-55555555-3333333----------5-3-5
    E------------------33333333------
    
    G-----------------------------------------
    D-----------------------------------------
    A-------333333--------55555-333------5-3-5
    E-33333--------333333-----------3333------
    esto asi son los versos, solos, todo lo ke keda..
    espero ke les sirva y si tienen dudas o lo ke sea
    eskribanme a mi mail... aguante pappo!!!!!
  • +
    ¡Colabora con nosotros!
    Envíanos tu versión de esta canción

Letra de Trén de las 16
Yo sólo quiero hacerte el amor,
e ir caminando un rato bajo el sol,
y de un momento a otro te diré,
que tengo que dejarte otra vez,
pero estaremos juntos hasta el amanecer,
yo tomo el tren que sale a la hora dieciséis.
Que tengo que dejarte otra vez,
pero estaremos juntos hasta el amanecer,
yo tomo el tren que sale a la hora dieciséis
PAPPO NOSEMURIO ESTATOCANDO CON LUCAS
PARA LOS PIBES DE CROMANION!!!
AGUANTE PAPPO Y MALDITA SUERTE!!!!!




[Trén de las 16 chords][Trén de las 16 cifra]
© LaCuerda.net · aviso legal · privacidad · es · en · pt · contacto