Acordes de Guitarra » P »Pappo » Pobre Juan (Tab)

Pobre Juan
Pappo

Letras, Acordes y Tabs para Guitarra, Bajo y Ukulele

  •    A5           G5                     D5
     Camino por las calles y no comprendo,
        A5             C5             A5  C5   (Riff)
     lo caro que es vivir en libertad
    
     Y cuando paso la gente me mira,
     y no puedo ver mi cara y nada más
    
     A5 C5  G5
     Pobre Juan,
        D5
     no puede ver su cara y nada más
    
     A5 C5  G5
     Pobre Juan,
             D5
     que se cree que está muy lejos de la paz
    
     (Riff)
    
    
  •   A5           G5            D5
    Camino por la calle y no comprendo,
        A5            C5         C5  A5  G5>x2
    lo caro que es vivir en libertad,
       A5         G5          D5
    y cuando paso la gente me mira,
       A5          C5          C5  A5  G5>x2
    y puedo ver mi cara y nada más.
    
    
    A5 C5  G5
    Pobre Juan,
         D5
    que puede ver su cara y nada más,
    A5 C5  G5
    Pobre Juan,
            D5                                C5>x8
    que se cree que está muy lejos de la paz;
    
    Solo: x22
    
  • SOLITARIO JUAN
                              As recorded by Pappo´s Blues
                       (From the 1972 Album PAPPO´S BLUES VOL. 2)
    
    Transcribed by Julio A. Romay
    
    Gtr I (E A D G B E) - 'Untitled'
    
       4/4
        Gtr I
                     ~                ~
                                            6x
    ||-----------------|--------------------||
    ||o----------------|-------------------o||
    ||-----------------|--------------------||
    ||-----------------|--------------------||
    ||o--------------3-|-------------------o||
    ||--0-3-4-5--3-5---|-0-3-4-5--3-5-3-----||
    
                                 ~         ~
    ||------|-----|------|---------|-------------||
    ||o-----|-----|------|---5-----|---5--------o||
    ||------|-7-7-|----5-|---5-----|---5---------||
    ||--7-7-|-7-7-|--7-5-|-7---7-5-|-7---7-5-----||
    ||o-7-7-|-5-5-|--7-3-|---------|------------o||
    ||--5-5-|-----|--5---|---------|-------------||
    
    ||----------|----------||------------------------------------|
    ||o---------|---------o||---5---5---5---5---5---5---
  • 1|-----------------------------|
    2|-----------------------------|
    3|-----------------------------|
    4|-------------5---------------|
    5|-------------3-------------5-|
    6|-0h3h4h5-3-5---0h3h4h5-3-5-3-|
    
    
     (LA           SOL)         RE
    Camino por la calle y no comprendo,
      (LA            DO)         Riff X2
    Lo caro que es vivir en libertad.
     (LA          SOL)        RE
    Y cuando paso la gente me mira,
      (LA          DO)         Riff X2
    Y puedo ver mi cara y nada más
    
    (LA DO) SOL
     Po-bre Juan,
        RE
    
  • (entra en la 2da vuelta de guit)
                3 veces                         2 veces
    G|------------------------------|-----------------------------|
    D|--------7--7-10--------7--7---|-----------------------------|
    A|--7-9-10-10------7-9-10-10-10-|------------3----------------|
    E|------------------------------|-0-2-3-5-3-5---0-2-3-5-3-5-3-|
           “Camino por la calle…”
    G|-------------777777---------------------------------------------
    D|----------------------------------------------------------------
    A|-----------------------3----------3---------------------------3-
    E|-0-2-3-5--3---------5----5--5-3-5---0-2-3-5-3-5-3--0-2-3-5-3-5--
                           “Y cuando…
    G|----------------------------------------------------------------
    D|----------------------------------------------------------------
    A|---------------------------555555----3----------3---------------
    E|-0-2-3-5-3-5-3--0-2-3-5--3--------5----5--5-3-5---0-2-3-5-3-5-3-
                                        “Pobre Juan…
    G|-
  • +
    ¡Colabora con nosotros!
    Envíanos tu versión de esta canción
  • Tutorial
    HD
    Explicado - Como tocar "Solitario Juan" de Pappo en el bajo tutorial#84
    10:06

Letra de Pobre Juan
Camino por las calles y no comprendo,
lo caro que es vivir en libertad
Y cuando paso la gente me mira,
y no puedo ver mi cara y nada más
Pobre Juan,
no puede ver su cara y nada más
Pobre Juan,
que se cree que está muy lejos de la paz
(Riff)
Camino por...
Riff




[Pobre Juan chords][Pobre Juan cifra]
© LaCuerda.net · aviso legal · privacidad · es · en · pt · contacto