Acordes de Guitarra » P »Pappo » Algo ha cambiado (Tab)

Algo ha cambiado
Pappo

Letras, Acordes y Tabs para Guitarra, Bajo y Ukulele

  • A5
    Por favor déjenme
    o voy a enloquecer,
    no soy quién para ser
    todo lo que soy.
    
    F#5          A5
    Algo ha cambiado
    F#         A5
    dentro de mí,
    F#5       A5
    que alucinado
    F#   G5   G#5    A5
    quie-ro   vi-vir.
    
    
    RIFF
    
    
    Voy a ver nacer el sol
    
  • Intro: x8 
    
    
     todo lo que soy.
    
    
     F#5-G5-G#5-A5
        quiero vivir.
    
  • es facil este tema... espero ke lo disfruten
    si tienen dudas o correcciones mandenmelas a mi mail...
    gracias
    
    G------------
    D----3-55-4-3
    A-33--------- este riff es la intro y se lo usa
    E------------ en la mayor parte de la cancion.
    
    G-------------
    D------------- x 2              estribo
    A--------5-4-3
    E-333-55------
    
    G-----------------------
    D-----------------------          estribo
    A---------5-4-3-------55
    E-3333-55-------3-5-7---
    
    solo riff (no se cuantas veces exactamente)
    y le sigue:
    G------------         G---------         G--------
    D-77-5-4-3--- despues D-77-55-99 y       D-9-8-7--
    A----------33  hace   A--------- despues A-------7
    E------------         E---------         E--------
    
    cierre:
    
    G------------------------------------------
    D-7-5-7-5---7------------------------------
    A---------5---55-66-77-88-99-1010-1111-1212
    E------------------------------------------
    
    riff, cierre
    
    repetir todas las partes las veces ke sea necesario
    ojala ke les 
  • Como la otra tab que esta acá de este tema no me “sonaba” para nada, hice
    esta que es bastante “fiel” a la original.
    Esta trascripción pertenece a la de su disco de álbum “Volumen 1” (1971)
    que es a mi gusto, además de ser la versión original, fue la mejor
    interpretación que tuvo este tema en el bajo (además del genial solo de
    viola que tiene) tocado en este disco por el gran David Lebon. Pruébenla!
    
    Intro
    G|---------------------------------------------------------
    D|---------------------------------------------------------
    A|---------------------------------------------------------
    E|-5--5----------5--5----------5--5----------5--5----------
    
                          “Por favor, déjenme…”
           (4 veces)            (8 veces)
    G|-------------------|-------------------|
    D|-------------------|-------------------|
    A|--------7|6--5-----|--------7|6--5-----|
    E|-5--5---------8-(7)|-5--5---------8-(7)|
               “Algo ha cambiado…
    G|-------------------------------------
    D|---
  • +
    ¡Colabora con nosotros!
    Envíanos tu versión de esta canción

Letra de Algo ha cambiado
Por favor déjenme
o voy a enloquecer,
no soy quién para ser
todo lo que soy.
Algo ha cambiado
dentro de mí,
que alucinado
quie-ro vi-vir.
RIFF
Voy a ver nacer el sol
en medio del camino,
y también voy a nacer,
de acuerdo a mi déstino.
Algo ha cambiado
dentro de mí,
que alucinado
quiero vivir.
Voy a ver nacer el sol...
Algo ha cambiado...
RIFF




[Algo ha cambiado chords][Algo ha cambiado cifra]
© LaCuerda.net · aviso legal · privacidad · es · en · pt · contacto